Deception Intro/Verse

(/) Slide Up  (\) Slide Down  (h) Hammer On  (p) Pull Off  (b) Bend (r) Release (v) Vibrato

E|--------------------------------------------------------------------------
B|--------------------------------------------------------------------------
G|--0--0--0--0--0--0--------------------------0--0--0--0--0--0-----4--3-----
D|--------------------0--0--0--0--0--0--0--0--------------------0-----------
A|--------------------------------------------------------------------------
E|--------------------------------------------------------------------------



E|-----------------------------------------------------------------
B|--2--2--2--2--2--2--0--0--------------2--2--2--2--2--2--0--0-----
G|--------------------------0--0--0--0--------------------------2--
D|-----------------------------------------------------------------
A|-----------------------------------------------------------------
E|-----------------------------------------------------------------
http://www.guitartabcreator.com
Guitar Tab Creator is intended to store guitar tab created through the tool. It currently does not support in-line text editing. Any text you place in here will be lost. If you need to comment on your tab, please use the "Tab Notes" section located below.