Tang Lickers - Jabibu

(/) Slide Up  (\) Slide Down  (h) Hammer On  (p) Pull Off  (b) Bend (r) Release (v) Vibrato


E|-----------------------
B|-----------------------
G|-----------------------
D|--------------------6--
A|-----6--------5--6-----
E|--5-----5--6-----------



E|------------------------------------------------------------
B|------------------------------------------------------------
G|------------------------------------------------------------
D|------------------------------------------------------------
A|------------------------------------------------------------
E|--8--8--8--8--7--7--13--13--12--12--12--12--12--12--12--12--



E|-------------------------------------
B|-------------------------------------
G|-------------------------------------
D|-------------------------------------
A|-------------------------------------
E|--8--8--8--8--7--7--13--13--4--3--2--



E|------------------------------------------------------------
B|------------------------------------------------------------
G|------------------------------------------------------------
D|------------------------------------------------------------
A|------------------------------------------------------------
E|--8--8--8--8--7--7--13--13--12--12--12--12--12--12--12--12--



E|----------------------------------------
B|----------------------------------------
G|----------------------------------------
D|----------------------------------------
A|----------------------------------------
E|--8--8--8--8--7--7--13--13--4--3--2--5--



E|-----------------------
B|-----------------------
G|-----------------------
D|--------------------6--
A|-----6--------5--6-----
E|--5-----5--6-----------



E|--------------
B|--------------
G|--------------
D|--------------
A|--------------
E|--8--7--6--5--



E|-----------------------
B|-----------------------
G|-----------------------
D|--------------------6--
A|-----6--------5--6-----
E|--5-----5--6-----------



E|-----------------
B|-----------------
G|-----------------
D|-----------------
A|-----6-----------
E|--5-----5--5--5--



E|-----------------------------------------------------------------------------------------
B|-----------------------------------------------------------------------------------------
G|-----------------------------------------------------------------------------------------
D|-----------------------------------------------------------------------------------------
A|-----------------------------5--7--5-----------------------------------------------5-----
E|--5--5--5--6--6--6--5--5--5-----------6--8--6--5--5--5--6--6--6--5--5--5--6--8--6--------



E|-----------------------------------------------------------------------------------------------
B|-----------------------------------------------------------------------------------------------
G|-----------------------------------------------------------------------------------------------
D|-----------------------------------------------------------------------------------------------
A|-----------------------------5--7--5--------------------------------------------------------5--
E|--5--5--5--6--6--6--5--5--5-----------6--8--6--5--5--5--6--6--6--5--5--5--6--8--6--6--8--6-----



E|------------------------------------------------------------
B|------------------------------------------------------------
G|------------------------------------------------------------
D|------------------------------------------------------------
A|------------------------------------------------------------
E|--8--8--8--8--7--7--13--13--12--12--12--12--12--12--12--12--



E|-------------------------------------
B|-------------------------------------
G|-------------------------------------
D|-------------------------------------
A|-------------------------------------
E|--8--8--8--8--7--7--13--13--4--3--2--



E|------------------------------------------------------------
B|------------------------------------------------------------
G|------------------------------------------------------------
D|------------------------------------------------------------
A|------------------------------------------------------------
E|--8--8--8--8--7--7--13--13--12--12--12--12--12--12--12--12--



E|----------------------------------------
B|----------------------------------------
G|----------------------------------------
D|----------------------------------------
A|----------------------------------------
E|--8--8--8--8--7--7--13--13--4--3--2--5--
http://www.guitartabcreator.com
Guitar Tab Creator is intended to store guitar tab created through the tool. It currently does not support in-line text editing. Any text you place in here will be lost. If you need to comment on your tab, please use the "Tab Notes" section located below.