Heart of Worship

(/) Slide Up  (\) Slide Down  (h) Hammer On  (p) Pull Off  (b) Bend (r) Release (v) Vibrato
E|------------------------------------------
B|------------------------------------------
G|------------------------------------------
D|--5--8--8---------------------------------
A|-----------6--8--8--6--8--10--8--6-----6--
E|------------------------------------8-----



E|---------------------------------------------------------------------------------
B|---------------------------------------------------------------------------------
G|---------------------------------------------------------------------------------
D|--5--8--8-----------------5--8--8---------------------------------5--8--8--------
A|-----------6--8--------------------6--8--8--6--8--10--8--6-----6-----------6--8--
E|-----------------6--8--6------------------------------------8--------------------



E|----------------------------------------------------------------------------------------------
B|----------------------------------------------------------------------------------------------
G|------------------------------------------------------------------------10-----------------8--
D|--5--6--6--6------------------------------------5--6--6--6-----------8------10--8--10--10-----
A|--------------8--6--8--8--6--8--10--8--6-----6--------------8--6--8---------------------------
E|------------------------------------------8---------------------------------------------------



E|------------------------------------------------
B|------------------------------------------------
G|------------------------------------------------
D|--5--6--6--6------------------------------------
A|--------------8--6--8--8--6--8--10--8--6-----6--
E|------------------------------------------8-----



E|------------------------------------------------
B|------------------------------------------------
G|----------------------------------8--10--10--8--
D|--5--5--8--8-----8--10--8--8--10----------------
A|--------------6---------------------------------
E|------------------------------------------------



E|-----------------------------------------------------------------------------------------------------
B|--11--11--11--11--------11--13--11-------------------------------------------------------------------
G|------------------8--8--------------10--12--10--8--10--12--12--13--12--8--10--12--12--13--12--10--8--
D|-----------------------------------------------------------------------------------------------------
A|-----------------------------------------------------------------------------------------------------
E|-----------------------------------------------------------------------------------------------------



E|--11--13--10------13--15------------------
B|--------------11----------18--17--15------
G|--------------------------------------17--
D|------------------------------------------
A|------------------------------------------
E|------------------------------------------



E|-------------------------------------------------------------------
B|--8--11--11--------------------------------------8--11--11---------
G|-------------8--10--10--8--10--12--10--8------8-------------8--10--
D|------------------------------------------10-----------------------
A|-------------------------------------------------------------------
E|-------------------------------------------------------------------
http://www.guitartabcreator.com
Guitar Tab Creator is intended to store guitar tab created through the tool. It currently does not support in-line text editing. Any text you place in here will be lost. If you need to comment on your tab, please use the "Tab Notes" section located below.