track 4

(/) Slide Up  (\) Slide Down  (h) Hammer On  (p) Pull Off  (b) Bend (r) Release (v) Vibrato


E|--------------------------------------------------------------------------
B|--------------------------------------------------------------------------
G|--------------------------------------------------------------------------
D|--------------------------------------------------------------------------
A|--------5--2--5--5--5--2--2--2--2--0--0--0-----------7--7--5--5-----------
E|--2--2--------------------------------------5--5--5-----------------------



E|-------------------------------------------------
B|-------------------------------------------------
G|-------------------------------------------------
D|-------------------------------------------------
A|--5--5--5--5--5-------------------------------0--
E|-----------------4--5----5--5--5--4--4--4--0-----



E|--------------------------------------------------------------------------------------
B|--------------------------------------------------------------------------------------
G|--------------------------------------------------------------------------------------
D|--------------------------------------------------------------------------------------
A|--2--2--2--2--2--2--2--1--1--1--1--1--1--1--0--0--0--0--0--0--------------------------
E|--------------------------------------------------------------2--2--2--2--1--1--1--1--



E|---------------------------------------------------
B|---------------------------------------------------
G|---------------------------------------------------
D|---------------------------------------------------
A|---------------------------------------------------
E|-5-5-5-5-5-5-5-5-5-5-5-5-5-7-7-7-7-7-7-7-7-7-7-7-7-



E|-----------------------------------------------------------------------------------------
B|-----------------------------------------------------------------------------------------
G|-----------------------------------------------------------------------------------------
D|-----------------------------------------------------------------------------------------
A|--------5--2--5--5--5--2--2--2--2--0--0--0-----------7--7--------------------------------
E|--2--2--------------------------------------5--5--5--------7--7--7--6--6--6--9--9--9-----



E|--------------------
B|--------------------
G|--------------------
D|--------------------
A|--------------------
E|--7--7--7--6--6--6--



E|-------------------------------------------------------
B|-------------------------------------------------------
G|-------------------------------------------------------
D|-------------------------------------------------------
A|-------------------------------------------------------
E|--2--------2----------2--------2--2--2--2--2--2--2--2--



E|--------------------------------------------------------------------------------------
B|--------------------------------------------------------------------------------------
G|--------------------------------------------------------------------------------------
D|--------------------------------------------------------------------------------------
A|--------------------------------------------------------------------------------------
E|--0--0--5--5--5--5--0--0--5--5--5--5--0--0--7--7--7--7--0--0--7--7--7--7--0--0--7--7--
http://www.guitartabcreator.com
Guitar Tab Creator is intended to store guitar tab created through the tool. It currently does not support in-line text editing. Any text you place in here will be lost. If you need to comment on your tab, please use the "Tab Notes" section located below.