track 3

(/) Slide Up  (\) Slide Down  (h) Hammer On  (p) Pull Off  (b) Bend (r) Release (v) Vibrato


E|-----------------------------
B|-----------------------------
G|-----------------------------
D|-----------------------------
A|-9-9-7-9-7-9-9-7-9-7-9-9-7-7-
E|-----------------------------



E|---------------------------------------------
B|---------------------------------------------
G|---------------------------------------------
D|---------------------------------------------
A|-7-7-7-7-7-7-7-7-7-7-7-4-4-4-4-4-4-4-4-4-4-4-
E|---------------------------------------------



E|--------------------------------------------------------
B|--------------------------------------------------------
G|--------------------------------------------------------
D|--------------------------------------------------------
A|-4-4---4-4--4-4--4-4--4-4-4-4---------------------------
E|------------------------------9-9--9-9-7-7--7-7-7-7-7-7-



E|---------------------------------------------------
B|---------------------------------------------------
G|---------------------------------------------------
D|---------------------------------------------------
A|-4-4-4-4-4-4-4-4-4-4-4---------3-3-3-3-3-3-3-3-3-3-
E|-----------------------9-9-7-7---------------------



E|---------------------------------------------------
B|---------------------------------------------------
G|---------------------------------------------------
D|---------------------------------------------------
A|---------------------------------------------------
E|-7-7-7-7-7-7-7-7-7-7-7-7-7-6-2-2-2-2-2-6-2-2-2-2-2-



E|-------------------------------------------------------
B|-------------------------------------------------------
G|-------------------------------------------------------
D|-------------------------------------------------------
A|---------------------------7-7-7-7-7-----7-7-7-7-7-7---
E|-7-7-7-7-7-7-7-7-7-7-7-7-6-----------6-6-------------6-



E|----------------------------------------------
B|----------------------------------------------
G|----------------------------------------------
D|----------------------------------------------
A|--------------------------------3-4-4-4-4-4-4-
E|-4-2-4-2-7-6-6-6-6-6-6--4-2-4-2---------------



E|-----------------------------------------------------------------------------------------------
B|-----------------------------------------------------------------------------------------------
G|-----------------------------------------------------------------------------------------------
D|-----------------------------------------------------------------------------------------------
A|---------------------------4-4-3-2-0-0-0-0---------------------------------3-3-4-4-4-3-3-4-4-4-
E|-4-2-4-2-7-6-6-6-6-6-6-6-------------------3-4-4-2-7-7-7-6-6-6-4-4-4-2-4-4---------------------



E|-------------------------------------
B|-------------------------------------
G|-------------------------------------
D|-------------------------------------
A|-------------------------4-3-2-------
E|-4-4-4-2-4-4-7-7-6-6-6-6-------4-3-2-
http://www.guitartabcreator.com
Guitar Tab Creator is intended to store guitar tab created through the tool. It currently does not support in-line text editing. Any text you place in here will be lost. If you need to comment on your tab, please use the "Tab Notes" section located below.