track 1

(/) Slide Up  (\) Slide Down  (h) Hammer On  (p) Pull Off  (b) Bend (r) Release (v) Vibrato


E|--------------------------------------------
B|--------------------------------------------
G|--------------------------------------------
D|-----------------------5--3--3--6--1--1--1--
A|--1--1--1--3--3--3--3-----------------------
E|--------------------------------------------



E|-----------------------------------------------------
B|-----------------------------------------------------
G|-----------------------------------------------------
D|-----------------------------------------------------
A|--1--1--1--1--1--3--3--3--3--3-----------------------
E|--------------------------------5--3--3--6--1--1--1--



E|------------------------------------------------------------------------
B|------------------------------------------------------------------------
G|------------------------------------------------------------------------
D|------------------------------------------------------------------------
A|------------------------------------------------------------------------
E|--6--6--6--6--6--6--6--6--6--5--5--5--5--5--5--5--5--5------5--3--6-----



E|-----------------------------------------------------------------------------------------------
B|-----------------------------------------------------------------------------------------------
G|-----------------------------------------------------------------------------------------------
D|-----------------------------------------------------------------------------------------------
A|-----------------------------------------------------------------------------------------------
E|--6--6--6--6--6--6--6--6--5--5--5--5--5--5--5--6--6--6--6--6--6--6--6--5--5--5--5--5--5--5--5--



E|-------------------------------------------------------------
B|-------------------------------------------------------------
G|-------------------------------------------------------------
D|-------------------------------------------------------------
A|--1--1--1--3--------3----1--1--1--8--8--6--6--6--6--6--6--6--
E|-------------------------------------------------------------



E|---------------------------------------------------------------------------
B|---------------------------------------------------------------------------
G|---------------------------------------------------------------------------
D|---------------------------------------------------------------------------
A|--------------------------3--3--3--3--3--3--3--3--3--3------3--------------
E|--6--6--6--6--6--6--6--6---------------------------------------5--6--1--1--



E|------------------------------------------------------------------
B|------------------------------------------------------------------
G|------------------------------------------------------------------
D|------------------------------------------------------------------
A|--------------------------3--3---------------------3--------------
E|--6--6--6--6--6--6--6--6--------1--1--1--5--5---------5--6--1--1--



E|-----------------------------------------------------
B|-----------------------------------------------------
G|-----------------------------------------------------
D|-----------------------------------------------------
A|--3--3--3--3--3--3--3-----3--3--3--3--3--------------
E|-----------------------5-----------------5--5--4--1--
http://www.guitartabcreator.com
Guitar Tab Creator is intended to store guitar tab created through the tool. It currently does not support in-line text editing. Any text you place in here will be lost. If you need to comment on your tab, please use the "Tab Notes" section located below.