song 1

(/) Slide Up  (\) Slide Down  (h) Hammer On  (p) Pull Off  (b) Bend (r) Release (v) Vibrato

E|-------------------------------------------------------------
B|-------------------------------------------------------------
G|-------------------------------------------------------------
D|-------------------------------------------------------------
A|-------------------------------------------------------------
D|-9-9-9-9-9-9-9-9-7-7-7-7-7-7-7-0-0-4-0-4-0-4-7-7-7-7-7-7-7-7-



E|-----------------------------------
B|-----------------------------------
G|-----------------------------------
D|-----------------------------------
A|-3-3-3-3-3-3-----------------------
D|-------------0-9-9-8-8-8-5-5-4-4-4-



E|-------------------------------------------------------------
B|-------------------------------------------------------------
G|-------------------------------------------------------------
D|-------------------------------------------------------------
A|-----------------9-9-9-9---------4-4-------------------------
D|-1-1-1-1-1-1-1-1---------8-8-8-8-----4-6-4-4-4-6-6-4-4-4-4---



E|-------------------------------------
B|-------------------------------------
G|-------------------------------------
D|-------------------------------------
A|-----------------5-5-5-5-5-5-5-5-5-5-
D|-1-1-1-1-0-0-0-0---------------------



E|-----------------------------------------
B|-----------------------------------------
G|-----------------------------------------
D|-----------------------------------------
A|-7-7-7-7-7-------------3-3-3-------------
D|-----------5-4-4-4-5-5-------5-2-4-5-2-2-



E|-------------------------------------------
B|-------------------------------------------
G|-------------------------------------------
D|-------------------------------------------
A|-7-7-7-7-7-------------3-3-3-5-------------
D|-----------5-4-4-4-5-5---------5-5-5-5-2-2-


http://www.guitartabcreator.com
Guitar Tab Creator is intended to store guitar tab created through the tool. It currently does not support in-line text editing. Any text you place in here will be lost. If you need to comment on your tab, please use the "Tab Notes" section located below.