New intro and verse tab

(/) Slide Up  (\) Slide Down  (h) Hammer On  (p) Pull Off  (b) Bend (r) Release (v) Vibrato

E|----------------------------------
B|----------12------12--------------
G|------13------13------13------13--
D|--14----------------------14------
A|----------------------------------
E|----------------------------------



E|----------------------------------
B|----------10------10--------------
G|------11------11------11------11--
D|--12----------------------12------
A|----------------------------------
E|----------------------------------



E|--------------------------
B|--------5-----5-----------
G|-----6-----6-----6-----6--
D|--7-----------------7-----
A|--------------------------
E|--------------------------



E|--------------------------
B|--------3-----3-----------
G|-----4-----4-----4-----4--
D|--5-----------------5-----
A|--------------------------
E|--------------------------



E|--------------------------
B|--------5-----5-----------
G|-----6-----6-----6-----6--
D|--7-----------------7-----
A|--------------------------
E|--------------------------
http://www.guitartabcreator.com
Guitar Tab Creator is intended to store guitar tab created through the tool. It currently does not support in-line text editing. Any text you place in here will be lost. If you need to comment on your tab, please use the "Tab Notes" section located below.