Since You've been gone outro

(/) Slide Up  (\) Slide Down  (h) Hammer On  (p) Pull Off  (b) Bend (r) Release (v) Vibrato

E|----------------------------------------------------------------------------------------------------
B|--10b8-------5----------------5---------------5-------------------5--5------------------------------
G|--------7b9-----7--6--6b4--2-----6b4--2--4b6-----5b4p2p0--2--4b6--------4b6b4p2-----2-----5p2p0-----
D|---------------------------------------------------------------------------------4-----4------------
A|----------------------------------------------------------------------------------------------------
E|----------------------------------------------------------------------------------------------------



E|---------------------5--3--------0--------------------------------------------------------5-----
B|---------------------------5----------------------------------------5h7p5--5h7p5-----5h7--------
G|-----2--4b6b4b6b4b6-----------3-----2h4p2p0-----2--4/6--4-----7--6----------------7-------------
D|--4------------------------------------------4--------------------------------------------------
A|-----------------------------------------------------------7------------------------------------
E|------------------------------------------------------------------------------------------------



E|-------5-------7--------------10--12--10p9----------------------------------------------------
B|--5h7-----7h9-----8b7--5--10----------------10-----10--12b14--12b14--12--10--12--12b14b12-----
G|------------------------------------------------9---------------------------------------------
D|----------------------------------------------------------------------------------------------
A|----------------------------------------------------------------------------------------------
E|----------------------------------------------------------------------------------------------



E|---------12---------------------------------------------10---------12/10---------12---------
B|--12b14------12b14--12--10h12p10------10--10h12p10------------------------12b14------12b14--
G|----------------------------------11----------------11------11/13---------------------------
D|--------------------------------------------------------------------------------------------
A|--------------------------------------------------------------------------------------------
E|--------------------------------------------------------------------------------------------



E|--12--------------------------9--7--9--7------
B|------12b14--13--12--10/6--7--------------10--
G|----------------------------------------------
D|----------------------------------------------
A|----------------------------------------------
E|----------------------------------------------
http://www.guitartabcreator.com
Guitar Tab Creator is intended to store guitar tab created through the tool. It currently does not support in-line text editing. Any text you place in here will be lost. If you need to comment on your tab, please use the "Tab Notes" section located below.