Under the bridge intro

(/) Slide Up  (\) Slide Down  (h) Hammer On  (p) Pull Off  (b) Bend (r) Release (v) Vibrato

Stave 1:

E|--------------------------------------------------------------
B|--3-----------3-----------------2-----------------------------
G|--------2--------2--------------------------3-----------------
D|-----4-----4--------------------------4--------4--4--2--------
A|--5-----------------4--2-----------4-----4--------------5--4--
E|--------------------------5--4--2-----------------------------

Stave 2:

E|-------------------------------------------------------------------
B|--3----------------3h5h3-------------------------------------------
G|-------------2------------2----------------------3-----------------
D|-------4--------4------------4-6--6--------4--------4--4--2--------
A|--4/5-----5------------------5/7--7-----4-----4--------------5--2--
E|-------------------------------------2-----------------------------

Stave 3:

E|-------------------------------------------------------------------
B|--3----------------3-----------------2-----------------------------
G|-------------2--------2--------------------------3-----------------
D|-------4--------4--------------------------4--------4--4--2--------
A|--4/5-----5--------------4--2-----------4-----4--------------5--2--
E|-------------------------------5--4--2-----------------------------

Stave 4:

E|-------------------------------------------------------------------
B|--3----------------3h5h3-------------------------------------------
G|-------------2------------2----------------------3--------3--------
D|-------4--------4------------4-6--6--------4--------4--------4-----
A|--4/5-----5------------------5/7--7-----4-----4--------4--------4--
E|-------------------------------------2-----------------------------

http://www.guitartabcreator.com
Guitar Tab Creator is intended to store guitar tab created through the tool. It currently does not support in-line text editing. Any text you place in here will be lost. If you need to comment on your tab, please use the "Tab Notes" section located below.