Supremacy

(/) Slide Up  (\) Slide Down  (h) Hammer On  (p) Pull Off  (b) Bend (r) Release (v) Vibrato


E|-----------------------------------------
B|-----------------------------------------
G|-----------------------------------------
D|-----------------------------------------
A|--------------------------------5--6--7--
E|--0--3--0--7--0--8--0--7--0--7-----------



E|-----------------------------------------
B|-----------------------------------------
G|-----------------------------------------
D|-----------------------------------------
A|--------------------------------5--6--7--
E|--0--3--0--7--0--8--0--7--0--7-----------



E|-----------------------------------------
B|-----------------------------------------
G|-----------------------------------------
D|-----------------------------------------
A|--------------------------------5--6--7--
E|--0--3--0--7--0--8--0--7--0--7-----------



E|-----------------------------------------
B|-----------------------------------------
G|-----------------------------------------
D|-----------------------------------------
A|--------------------------------5--6--7--
E|--0--3--0--7--0--8--0--7--0--7-----------



E|-------------------------------------------------------------------------
B|-------------------------------------------------------------------------
G|-------------------------------------------------------------------------
D|-------------------------------------------------------------------------
A|-------------------------------------------------------------------------
E|--5--5--5--5--7--7--7--7--8--8--8--8--10--10--10--10--12--12--12--12-----



E|--------------------------------------------------------------
B|--------------------------------------------------------------
G|--------------------------------------------------------------
D|--14--------------------------14------12----------------------
A|------15--12----------12--15------14------15--12--14--11------
E|--------------12--12--------------------------------------12--



E|-----------------------------------------------------
B|-----------------------------------------------------
G|-----------------------------------------------------
D|--12-------------------------14--12------------------
A|------12------0----------------------15--14--12--14--
E|----------13-----10--12--13--------------------------
http://www.guitartabcreator.com
Guitar Tab Creator is intended to store guitar tab created through the tool. It currently does not support in-line text editing. Any text you place in here will be lost. If you need to comment on your tab, please use the "Tab Notes" section located below.