Puppet

(/) Slide Up  (\) Slide Down  (h) Hammer On  (p) Pull Off  (b) Bend (r) Release (v) Vibrato

E|-----------------------------------------------------
B|-----3-----3-----3-----3-----3-----3-----3-----3-----
G|-----------------------------------------------------
D|--0-----0-----0-----0-----0-----0-----0-----0--------
A|-----------------------------------------------------
E|-----------------------------------------------------



E|--------------------------------------------------
B|-----3-----3-----3-----3-----3-----3-----3-----3--
G|--------------------------3-----3-----0-----0-----
D|--0-----0-----0-----0-----------------------------
A|--------------------------------------------------
E|--------------------------------------------------



E|--------------------------------------------------
B|-----3-----3-----3-----3-----3-----3-----3-----3--
G|--------------0-----0-----------------------------
D|--3-----3-----------------0-----0-----0-----0-----
A|--------------------------------------------------
E|--------------------------------------------------



E|--------------------------------------------------
B|-----3-----3-----3-----3-----3-----3-----3-----3--
G|--3-----3-----2-----2-----3-----3-----2-----2-----
D|--------------------------------------------------
A|--------------------------------------------------
E|--------------------------------------------------



E|--------------------------------------------------
B|-----3-----3-----3-----3-----3-----3-----3-----3--
G|--3-----3-----2-----2-----0-----0-----0-----2-----
D|--------------------------------------------------
A|--------------------------------------------------
E|--------------------------------------------------



E|--------------------------------------------------
B|-----3-----3-----3-----3-----3-----3-----3-----3--
G|--3-----3-----2-----2-----3-----3-----2-----2-----
D|--------------------------------------------------
A|--------------------------------------------------
E|--------------------------------------------------



E|--------------------------------------2--
B|-----3-----3-----3-----3-----3-----3--2--
G|--0-----0-----0-----0-----2-----2-----2--
D|-----------------------------------------
A|-----------------------------------------
E|-----------------------------------------



E|--0--------------
B|--3--------------
G|--2--------------
D|--0--------------
A|--0--------------
E|-----------------
http://www.guitartabcreator.com
Guitar Tab Creator is intended to store guitar tab created through the tool. It currently does not support in-line text editing. Any text you place in here will be lost. If you need to comment on your tab, please use the "Tab Notes" section located below.