Radiohead - Little by Little

(/) Slide Up  (\) Slide Down  (h) Hammer On  (p) Pull Off  (b) Bend (r) Release (v) Vibrato
E|----------------------------------------------------
B|----------------------------------------------------
G|--2--2--1-----3--3--2-----7--7--6-----9---9---7-----
D|--0--0--0--0--0--0--0--0--0--0--0--0--0---0---0--0--
A|-----------0-----------0-----------0-------------0--
E|--3--3--2--0--5--5--3--0--8--8--7--0--10--10--9--0--



E|------------------------------------------------
B|------------------------------------------------
G|-----11--10-----10---------10------9------9-----
D|------------------------------------------------
A|------------------------------------------------
E|--0----------8------8--10------10-----10--------



E|-------------------------
B|-------------------------
G|----3----5----7----9-----
D|----0----0----0----0-----
A|-------------------------
E|----5----7----8----10----



E|-------------------
B|-------------------
G|----3----0----2----
D|----0----0----0----
A|-------------------
E|----5----1----4----
http://www.guitartabcreator.com
Guitar Tab Creator is intended to store guitar tab created through the tool. It currently does not support in-line text editing. Any text you place in here will be lost. If you need to comment on your tab, please use the "Tab Notes" section located below.