Quayle-Style Legato Lines

(/) Slide Up  (\) Slide Down  (h) Hammer On  (p) Pull Off  (b) Bend (r) Release (v) Vibrato


E|-----------------------------------------------7h8h9-----------------------------
B|--------------------------------------------8---------10\8p5h6h7-----------------
G|-----------------------6-----------------7------------------------7p4h5h6--------
D|------------5h9p5h7h9-----7-----------9------------------------------------7-----
A|---------7-------------------9p7--10---------------------------------------------
E|--5h7h9--------------------------------------------------------------------------



E|-------------------------------------------------------12h14h16p12---------------------
B|---------------------------------------------------12---------------14-----------------
G|-----------------------6------------------9h11h13-----------------------14p13----------
D|------------6h9p6h7h9-----7------------9---------------------------------------14------
A|---------7-------------------9p7h9h11----------------------------------------------16--
E|--5h7h9--------------------------------------------------------------------------------
http://www.guitartabcreator.com
Guitar Tab Creator is intended to store guitar tab created through the tool. It currently does not support in-line text editing. Any text you place in here will be lost. If you need to comment on your tab, please use the "Tab Notes" section located below.