Navigating Lydian across and up the fretboard - in A

(/) Slide Up  (\) Slide Down  (h) Hammer On  (p) Pull Off  (b) Bend (r) Release (v) Vibrato


E|-----------------------------------4--7--9--------------------------------9--12-----
B|--------------------------------5----------------------------------9--10------------
G|-----------------------4-----6----------------------------------9-------------------
D|-----------6--------6-----7------------------------------7--11----------------------
A|-----4--7-----4--7--------------------------------7--11-----------------------------
E|--5--------------------------------------------9------------------------------------



E|------------------------------------------17--18--
B|----------------------------------15--18----------
G|----------------------13--14--16------------------
D|--------------11--14------------------------------
A|------11--12--------------------------------------
E|--12----------------------------------------------
http://www.guitartabcreator.com
Guitar Tab Creator is intended to store guitar tab created through the tool. It currently does not support in-line text editing. Any text you place in here will be lost. If you need to comment on your tab, please use the "Tab Notes" section located below.