Major Arpeggios in B

(/) Slide Up  (\) Slide Down  (h) Hammer On  (p) Pull Off  (b) Bend (r) Release (v) Vibrato

E|--------------------------------------11----14----
B|--------------------------------12----------------
G|--------------------------11----------------------
D|---------------9----13----------------------------
A|----------9---------------------------------------
E|----11--------------------------------------------



E|------------------------------------------
B|------------------------------------12----
G|------------------------------11----------
D|-------------------9h11h13----------------
A|--------------9---------------------------
E|----7h9h11--------------------------------



E|--------------------------7--9/11--
B|--------------------7--9-----------
G|-----------------8-----------------
D|-----------6--9--------------------
A|-----6--9--------------------------
E|--7--------------------------------
http://www.guitartabcreator.com
Guitar Tab Creator is intended to store guitar tab created through the tool. It currently does not support in-line text editing. Any text you place in here will be lost. If you need to comment on your tab, please use the "Tab Notes" section located below.