Emulating Eric

(/) Slide Up  (\) Slide Down  (h) Hammer On  (p) Pull Off  (b) Bend (r) Release (v) Vibrato


E|------------------------12--15--14--12------14--12----------12---------------------------------
B|--17b15p12------12--15------------------15----------15--12------15--12------15--12-------------
G|------------14----------------------------------------------------------14----------14--12-----
D|-----------------------------------------------------------------------------------------------
A|-----------------------------------------------------------------------------------------------
E|-----------------------------------------------------------------------------------------------



E|-----------------------------------------------------------------------
B|--12-------------------------------------------------------------------
G|------14--12------14--12-----------------------------------------------
D|--------------14----------14--12----------14--12------------------14v--
A|----------------------------------14--12----------14--12---------------
E|----------------------------------------------------------15--12-------



E|-----------------------19v--19----------17\15----------14----------15\14-------------
B|--17v----------17--20-----------20-------------17----------16-------------16---------
G|-------16--19-----------------------19-------------16----------16-------------16-----
D|-------------------------------------------------------------------------------------
A|-------------------------------------------------------------------------------------
E|-------------------------------------------------------------------------------------



E|--------------------------14--17--15b17--15--12--14------12----------------
B|----------------------16-----------------------------15------12--15b17-----
G|--------------14--16-------------------------------------------------------
D|------13--16---------------------------------------------------------------
A|--14-----------------------------------------------------------------------
E|---------------------------------------------------------------------------



E|------------------------------------------------------------------------------------------
B|--------------12--------------------------------------------------------------------------
G|--12--14--15------15--14--12------14--12--------------------------------------------------
D|------------------------------14----------14--12----------14--12------------------14v-----
A|--------------------------------------------------14--12----------14--12------------------
E|--------------------------------------------------------------------------15--12----------



E|-------------------------------------------------------------------------------
B|-------------------------14----------14h16----------14----------14h16----------
G|---------------------14------16-------------16----------16-------------16------
D|--14/16------13--16--------------16-------------16----------16-------------16--
A|---------14--------------------------------------------------------------------
E|-------------------------------------------------------------------------------
http://www.guitartabcreator.com
Guitar Tab Creator is intended to store guitar tab created through the tool. It currently does not support in-line text editing. Any text you place in here will be lost. If you need to comment on your tab, please use the "Tab Notes" section located below.