Altered & Diminished positioning

(/) Slide Up  (\) Slide Down  (h) Hammer On  (p) Pull Off  (b) Bend (r) Release (v) Vibrato

E|-------------------------------------------------8----------------------------------------------
B|---------------------------------------7--9--11-----11--9--7------------------------------------
G|---------------------------------8--9-------------------------9--8------------------------------
D|----------------------8--10--11-------------------------------------11--10--8-------------------
A|------------7--9--11-----------------------------------------------------------11--9--7---------
E|--8--9--11-------------------------------------------------------------------------------11-----



E|--------------------------------------------5--6--8--6--5--------------------------------------
B|-----------------------------------5--7--8-----------------8--7--5-----------------------------
G|--------------------------5--6--8-----------------------------------8--6--5--------------------
D|-----------------5--7--8-----------------------------------------------------8--7--5-----------
A|--------6--7--9-----------------------------------------------------------------------7--6-----
E|--8--9--------------------------------------------------------------------------------------9--



E|---------------------------------------------------6--8--6--------------------------------------
B|-----------------------------------------7--8--10-----------10--8--7----------------------------
G|--------------------------------6--8--9-------------------------------9--8--6-------------------
D|----------------------7--8--10-------------------------------------------------10--8--7---------
A|------------7--9--10---------------------------------------------------------------------10-----
E|--8--9--11--------------------------------------------------------------------------------------



E|---------------------------------------------------------------8----------------------------------
B|----------------------------------------------------8--10--11-----11--10--8-----------------------
G|------------------------------------------8--9--11---------------------------11--9--8-------------
D|---------------------------8--10--10--11-----------------------------------------------11--10--8--
A|----------------9--10--12-------------------------------------------------------------------------
E|--8--9--11--12------------------------------------------------------------------------------------
http://www.guitartabcreator.com
Guitar Tab Creator is intended to store guitar tab created through the tool. It currently does not support in-line text editing. Any text you place in here will be lost. If you need to comment on your tab, please use the "Tab Notes" section located below.