Beat it Lyrical

(/) Slide Up  (\) Slide Down  (h) Hammer On  (p) Pull Off  (b) Bend (r) Release (v) Vibrato


E|---------------------------------------------------------------------
B|--12---------12---------12---------12---------12--15--12---------12--
G|------14b16------14b16------14b16------14b16--------------14b16------
D|---------------------------------------------------------------------
A|---------------------------------------------------------------------
E|---------------------------------------------------------------------



E|----------------------------------------------------------------------------
B|--12---------12---------12---------12---------12----------------------------
G|------14b16------14b16------14b16------14b16------15\14--12--14--12--14/16--
D|----------------------------------------------------------------------------
A|----------------------------------------------------------------------------
E|----------------------------------------------------------------------------



E|------------------------------------------------------
B|--12--------------------------------------------------
G|------15\14--12----------------------11---------------
D|-----------------14--12--14--14--14------14--12--12v--
A|------------------------------------------------------
E|------------------------------------------------------



E|------------------------------
B|------------------------------
G|------12--------------11------
D|--14------14------14------12--
A|------------------------------
E|------------------------------
http://www.guitartabcreator.com
Guitar Tab Creator is intended to store guitar tab created through the tool. It currently does not support in-line text editing. Any text you place in here will be lost. If you need to comment on your tab, please use the "Tab Notes" section located below.