...

(/) Slide Up  (\) Slide Down  (h) Hammer On  (p) Pull Off  (b) Bend (r) Release (v) Vibrato


E|--------0--3--------------
B|-----1--------------0--3--
G|--2--------------0--------
D|--2-----------2-----------
A|--------------2-----------
E|--------------------------



E|--------0--3/5--3-----------------------------
B|-----1-------------------0--3--1--0-----------
G|--2-------------------0--------------0--2--1--
D|--2----------------2--------------------2--2--
A|-------------------2--------------------------
E|----------------------------------------------
http://www.guitartabcreator.com
Guitar Tab Creator is intended to store guitar tab created through the tool. It currently does not support in-line text editing. Any text you place in here will be lost. If you need to comment on your tab, please use the "Tab Notes" section located below.