Misty

(/) Slide Up  (\) Slide Down  (h) Hammer On  (p) Pull Off  (b) Bend (r) Release (v) Vibrato
E|--6-----|--6--------|--8--8--8--8--8--6--------|-----------------3--|--
B|-----8--|--8--------|--6-----------8-----8--4--|--4-----------4-----|--
G|--------|--7-----5--|--6-----------6-----------|--5--------5--------|--
D|--------|--8--8-----|--6-----------8-----------|--5--5--6-----------|--
A|--------|--6--------|--8-----------6-----------|--------------------|--
E|--------|--6--------|--6-----------6-----------|--4-----------------|--



E|--6--6--6--4--6--4--6--|--6-----6------------|-----8-------6--------|--
B|--4-----------6--------|--8--9-----8------8--|--9--9-------6-----6--|--
G|--4-----------4--------|--7--------8--10-----|-----8-------7--8-----|--
D|--4-----------6--------|--8--------8---------|-----10--10--6--------|--
A|--6-----------4--------|--6------------------|-----8-------8--------|--
E|--4-----------4--------|--6--------8---------|-----8-------6--------|--



E|--3------3------|------------6-----|--|--
B|--3------5------|--1------1-----8--|--|--
G|--3------3------|--1------1--------|--|--
D|--3------5------|--1------0--------|--|--
A|--5------3------|---------1--------|--|--
E|--3------3------|--1---------------|--|--



E|--8----------|-----
B|--8----------|-----
G|--8----------|-----
D|--8----------|-----
A|--6----------|-----
E|--6----------|-----



E|-----------6--8--|--9--9--9--9----|--9--9--11--12--11--9--|--8--8--8--8----|--
B|-----6--8--------|--6-------------|--8--------------------|--8-------------|--
G|--8--------------|--6-------------|--8--------------------|--8-------------|--
D|-----------------|--6-------------|--8--------------------|--6-------------|--
A|-----------------|--8-------------|--x--------------------|--x-------------|--
E|-----------------|--6-------------|--x--------------------|--x-------------|--



E|-----------6--8--|--10--10--10--8--10--|--
B|-----6--9--------|--8------------------|--
G|--8--------------|--8------------------|--
D|-----------------|--10-----------------|--
A|-----------------|---------------------|--
E|-----------------|--x------------------|--
http://www.guitartabcreator.com
Guitar Tab Creator is intended to store guitar tab created through the tool. It currently does not support in-line text editing. Any text you place in here will be lost. If you need to comment on your tab, please use the "Tab Notes" section located below.