Someone Like You - Adele

(/) Slide Up  (\) Slide Down  (h) Hammer On  (p) Pull Off  (b) Bend (r) Release (v) Vibrato

Stave 1:

E|---------------------------------------------------------------------------------------------
B|---------------------------------------------------------------------------------------------
G|--9----------------------9--9--------------------9--9--------------------9--9----------------
D|-------11------9--7------------11------9--7------------11------9--7------------11----9----7--
A|---------------------------------------------------------------------------------------------
E|---------------------------------------------------------------------------------------------

Stave 2:

E|-----------------------------------------------------------------------------------------
B|-----------------------------------------------------------------------------------------
G|--9--------------------9/11--------------------------------------------------------------
D|-------11------9--7------------9h11----7----9----7--9\4--4--4/7---------7----9------/11--
A|-------------------------------------------------------------------7h9-------------------
E|-----------------------------------------------------------------------------------------

http://www.guitartabcreator.com
Guitar Tab Creator is intended to store guitar tab created through the tool. It currently does not support in-line text editing. Any text you place in here will be lost. If you need to comment on your tab, please use the "Tab Notes" section located below.