Sweet Child Of Mine - Intro Using Harmonics

(/) Slide Up  (\) Slide Down  (h) Hammer On  (p) Pull Off  (b) Bend (r) Release (v) Vibrato
E|-------------------------------
B|----------------------7--------
G|------7-----12--5--------7-----
D|--12-----7---------7-----------
A|-------------------------------
E|-------------------------------



E|---------------------------
B|---------------------7-----
G|-----7-----12--5--------7--
D|--------7---------7--------
A|--7------------------------
E|---------------------------



E|----------------------------
B|----------------------7-----
G|--12--7-----12--5--------7--
D|---------7---------7--------
A|----------------------------
E|----------------------------



E|--12-----------12-----------------------12-----------
B|----------------------7-----------7------------------
G|---------7------------------5------------------7-----
D|------7-----7------7-----7-----7-----7------7-----7--
A|-----------------------------------------------------
E|-----------------------------------------------------
http://www.guitartabcreator.com
Guitar Tab Creator is intended to store guitar tab created through the tool. It currently does not support in-line text editing. Any text you place in here will be lost. If you need to comment on your tab, please use the "Tab Notes" section located below.