walking towards me - jung jinwoon

(/) Slide Up  (\) Slide Down  (h) Hammer On  (p) Pull Off  (b) Bend (r) Release (v) Vibrato

E|--0--0--0----0--------0--0--0--0--0--0--0--7--5--0--
B|--0--0--0----0--------0--7--0--7--0--0--0--5--5--0--
G|--9--8--9----8--------9--9--8--9--8--9--8--5--5--9--
D|--9--9--9----9--------9--9--9--9--9--7--7--5--5--9--
A|--7--7--7----7--------7--0--0--0--0--0--0--------7--
E|--0--0--0----0--------0--9--9--9--9--0--0--------0--



E|--------------0-----
B|--------------1-----
G|--9--6--6--2--2--9--
D|--9--6--6--2--2--9--
A|--7--4--4-----0--7--
E|--------------0-----
http://www.guitartabcreator.com
Guitar Tab Creator is intended to store guitar tab created through the tool. It currently does not support in-line text editing. Any text you place in here will be lost. If you need to comment on your tab, please use the "Tab Notes" section located below.