Miles Davis - So What

(/) Slide Up  (\) Slide Down  (h) Hammer On  (p) Pull Off  (b) Bend (r) Release (v) Vibrato


E|-------------------------7--5--
B|----------------5--------8--6--
G|--------4/5--7-----5--7--7--5--
D|-----7-------------------7--5--
A|--5----------------------7--5--
E|-------------------------------



E|----------------------------7--5--
B|----------------5-----------8--6--
G|--------4/5--7-----5--7-----7--5--
D|-----7-------------------7--7--5--
A|--5-------------------------7--5--
E|----------------------------------



E|-------------------------7--5--
B|----------------5--------8--6--
G|--------4/5--7-----5--7--7--5--
D|-----7-------------------7--5--
A|--5----------------------7--5--
E|-------------------------------



E|-----------------------7--5--
B|--4/5--4/5--4/5--------8--6--
G|-----------------7-----7--5--
D|--------------------7--7--5--
A|-----------------------7--5--
E|-----------------------------



E|--
B|--
G|--
D|--
A|--
E|--
http://www.guitartabcreator.com
Guitar Tab Creator is intended to store guitar tab created through the tool. It currently does not support in-line text editing. Any text you place in here will be lost. If you need to comment on your tab, please use the "Tab Notes" section located below.