Howlin' Wolf - Smokestack Lightnin'

(/) Slide Up  (\) Slide Down  (h) Hammer On  (p) Pull Off  (b) Bend (r) Release (v) Vibrato


E|------------------------------------
B|--5--8------------------------------
G|-------------7----------------------
D|--------7/9-----9--9\7--5-----------
A|---------------------------7--5-----
E|---------------------------------0--



E|------------------------------------
B|--5--3------------------------------
G|-------------7----------------------
D|--------7/9-----9--9\7--5-----------
A|---------------------------7--5-----
E|---------------------------------0--
http://www.guitartabcreator.com
Guitar Tab Creator is intended to store guitar tab created through the tool. It currently does not support in-line text editing. Any text you place in here will be lost. If you need to comment on your tab, please use the "Tab Notes" section located below.