20131224 Basic Blues Lick Sliding

(/) Slide Up  (\) Slide Down  (h) Hammer On  (p) Pull Off  (b) Bend (r) Release (v) Vibrato


E|------------------------
B|------------------------
G|------------------------
D|--5/7/5/7---------------
A|-----------5/7--5/7-----
E|------------------------



E|------------------------
B|------------------------
G|------------------------
D|------------------------
A|--10/12--10--12---------
E|-----------------10/12--



E|------------------------
B|------------------------
G|-----------------10/12--
D|---------12--14---------
A|--12/14-----------------
E|------------------------
http://www.guitartabcreator.com
Guitar Tab Creator is intended to store guitar tab created through the tool. It currently does not support in-line text editing. Any text you place in here will be lost. If you need to comment on your tab, please use the "Tab Notes" section located below.