Kings of Convenience - I´d rather dance with you

(/) Slide Up  (\) Slide Down  (h) Hammer On  (p) Pull Off  (b) Bend (r) Release (v) Vibrato


E|--------------
B|-----3--3--5--
G|--6--4--4--6--
D|--7--5--5--7--
A|--5--5--5--7--
E|--7-----------



E|-----------------
B|-----3--3--3-----
G|--6--4--4-----7--
D|--7--5--5--4--5--
A|--5--5--5--5--7--
E|--7--------------
http://www.guitartabcreator.com
Guitar Tab Creator is intended to store guitar tab created through the tool. It currently does not support in-line text editing. Any text you place in here will be lost. If you need to comment on your tab, please use the "Tab Notes" section located below.