shadow

Verse
E|-----------------------------------------------------------------
B|-----3-------3-------3---------------3-------3-------3-----------
G|---0---0---0---0---0---0---3---3---0---0---0---0---0---0---3---3-
D|-2-------0-----------------------2-------0-----------------------
A|-----------------2-------3---2-------------------2-------3---2---
E|-----------------------------------------------------------------


Chorus
E|-------------------------------------------------------------------------------------
B|-----3-------3-------3-------3-------3-------3-------3-------3-------3-----3-----3---
G|---0---0---1---1---0---0---0---0---0---0---1---1---0---0---0---0---0-----1-----0-----
D|-2-------0-----------------------2-------0-----------------------2-----0-------------
A|-----------------2-------1-----------------------2-------1-------------------2-----1-
E|-------------------------------------------------------------------------------------


Bridge
E|-----------------
B|-3-3-3-3-3-3-3-3-
G|-----------------
D|-2-0-----2-0-----
A|-----2-3-----2-3-
E|-----------------


End Bit
E|-------------------------------------------------3-
B|-3-3-3-3-3-3-3-3-6-6-6--6-6-6-6--6-3-3-3-3-3-3-3-3-
G|---------------------------------------------------
D|-2-0---2-2-0-----7-8-10-8-7-8-10-8-2-0-----2-0-----
A|-----2-3-----2-3-----------------------2-3-----2-2-
E|-------------------------------------------------3-
Guitar Tab Creator is intended to store guitar tab created through the tool. It currently does not support in-line text editing. Any text you place in here will be lost. If you need to comment on your tab, please use the "Tab Notes" section located below.