Greensleeves (EASY)

(/) Slide Up  (\) Slide Down  (h) Hammer On  (p) Pull Off  (b) Bend (r) Release (v) Vibrato


E|-----------0--1--0--------------------------------
B|-----1--3-----------3--0--------0--1--------------
G|--2-----------------------0--2--------2--2--1--2--
D|--------------------------------------------------
A|--------------------------------------------------
E|--------------------------------------------------



E|--------------------0--1--0-----------------
B|--0--------0--1--3-----------3--0--------0--
G|-----1-----------------------------0--2-----
D|--------2-----------------------------------
A|--------------------------------------------
E|--------------------------------------------



E|-----------------------------3--3--2--0--
B|--1--0-----------------------------------
G|--------2--1-----1--2--2--2--------------
D|--------------4--------------------------
A|-----------------------------------------
E|-----------------------------------------



E|--------------------------------------------
B|--3--0--------0--1-----------------0--------
G|--------0--2--------2--2--2--1--2-----1-----
D|-----------------------------------------2--
A|--------------------------------------------
E|--------------------------------------------



E|--3--3--2--0-----------------------------------------
B|--------------3--0--------0--1--0--------------------
G|--------------------0--2-----------2--1-----1--2--2--
D|-----------------------------------------4-----------
A|-----------------------------------------------------
E|----------------------------------------------------- http://www.guitartabcreator.com
Guitar Tab Creator is intended to store guitar tab created through the tool. It currently does not support in-line text editing. Any text you place in here will be lost. If you need to comment on your tab, please use the "Tab Notes" section located below.