Tab 1

(/) Slide Up  (\) Slide Down  (h) Hammer On  (p) Pull Off  (b) Bend (r) Release (v) Vibrato
E|---------------------------------------------------------------------------------------------------
B|---------------------------------------------------------------------------------------------------
G|---------------------------------------------------------------------------------------------------
D|---------------------------------------------------------------------------------------------------
A|---0---0---0---0---3---3---3---3---5---5---5---5---4---4---2---2---0---0---0---0---3---3---3---3---
E|-0---0---0---0---3---3---3---3---5---5---5---5---4---4---2---2---0---0---0---0---3---3---3---3-----



E|-------------------------------------------------------------------------------------------------
B|-------------------------------------------------------------------------------------------------
G|-------------------------------------------------------------------------------------------------
D|-------------------------------------------------------------------------------------------------
A|---5---5---5---5---4---4---2---2---0---0---0---0---3---3---3---3---5---5---5---5---4---4---2---2-
E|-5---5---5---5---4---4---2---2---0---0---0---0---3---3---3---3---5---5---5---5---4---4---2---2---



E|-------------------------------------------------------------------------------------------------
B|-------------------------------------------------------------------------------------------------
G|-------------------------------------------------------------------------------------------------
D|-----0-----0-----3-----3-----5-----5-----4-----2-----0-----0-----3-----3-----5-----5-----4-----2-
A|---0-----0-----3-----3-----5-----5-----4-----2-----0-----0-----3-----3-----5-----5-----4-----2---
E|-0-----0-----3-----3-----5-----5-----4-----2-----0-----0-----3-----3-----5-----5-----4-----2-----



E|-------------------------------------------------------------------------------------------------
B|-------------------------------------------------------------------------------------------------
G|-------------------------------------------------------------------------------------------------
D|-----0-----0-----3-----3-----5-----5-----4-----2-----0-----0-----3-----3-----5-----5-----4-----2-
A|---0-----0-----3-----3-----5-----5-----4-----2-----0-----0-----3-----3-----5-----5-----4-----2---
E|-0-----0-----3-----3-----5-----5-----4-----2-----0-----0-----3-----3-----5-----5-----4-----2-----



E|-------------------------------------------------
B|-------------------------------------------------
G|-------------------------------------------------
D|-----0-----0-----3-----3-----5-----5-----4-----2-
A|---0-----0-----3-----3-----5-----5-----4-----2---
E|-0-----0-----3-----3-----5-----5-----4-----2-----



E|----------------------------------------------------------------------------------
B|----------------------------------------------------------------------------------
G|----------------------------------------------------------------------------------
D|-0-0--0-0--3-3--3-3--5-5--5-5--4-4--2-2--1-1--1-1--4-4--4-4--6-6--6-6--5-5--3-3---
A|-0-0--0-0--3-3--3-3--5-5--5-5--4-4--2-2--1-1--1-1--4-4--4-4--6-6--6-6--5-5--3-3---
E|-0-0--0-0--3-3--3-3--5-5--5-5--4-4--2-2--1-1--1-1--4-4--4-4--6-6--6-6--5-5--3-3---



E|--------------------------------------------------------------------------------
B|--------------------------------------------------------------------------------
G|--------------------------------------------------------------------------------
D|-2-2--2-2--5-5--5-5--7-7--7-7--6-6--4-4--0-0--1-1--1-1--7-7--7-7--3-3--5-5--0-0-
A|-2-2--2-2--5-5--5-5--7-7--7-7--6-6--4-4--0-0--1-1--1-1--7-7--7-7--3-3--5-5--0-0-
E|-2-2--2-2--5-5--5-5--7-7--7-7--6-6--4-4--0-0--1-1--1-1--7-7--7-7--3-3--5-5--0-0-



E|-----------------------------------------------------------
B|-----------------------------------------------------------
G|-----------------------------------------------------------
D|--1--1----1--1----7--7----7--7----3--3----5--5----0--0--6--
A|--1--1----1--1----7--7----7--7----3--3----5--5----0--0--9--
E|--1--1----1--1----7--7----7--7----3--3----5--5----0--0--7--
http://www.guitartabcreator.com
Guitar Tab Creator is intended to store guitar tab created through the tool. It currently does not support in-line text editing. Any text you place in here will be lost. If you need to comment on your tab, please use the "Tab Notes" section located below.