Dear Mary

(/) Slide Up  (\) Slide Down  (h) Hammer On  (p) Pull Off  (b) Bend (r) Release (v) Vibrato


E|-----------3-----------3--------------------------------
B|--------------3-----------4--------0--------0-----------
G|-----------------------------3--------0--------0--------
D|-----------------------------------------2--------------
A|--------------------------------------------------2-----
E|--0--2--3--------3--2-----------0-----------------------



E|-----------3-----------3---------------------------------
B|--------------3-----------4--------0h1--------0h1--------
G|-----------------------------3----------2----------2-----
D|-------------------------------------------2-------------
A|--------------------------------0------------------------
E|--0--2--3--------3--2------------------------------------



E|-----------3-----------3---------------------------------
B|--------------3-----------3--------0h2--------3p2--------
G|----------------------------------------2----------2-----
D|-----------------2-------------------------2-------------
A|--0--2--3-----------2-----------0------------------------
E|-----------------------------3---------------------------



E|--------------3-----------------3-----------------------------------
B|-----------------0-----0-----------4-----4--------0--------0--------
G|--------------------------------------3--------------0--------0-----
D|--------------------------------------------------------2--------2--
A|--------------------------------------------------------------------
E|--0--2--3--3--------3-----2--2--------------0--0--------------------
http://www.guitartabcreator.com
Guitar Tab Creator is intended to store guitar tab created through the tool. It currently does not support in-line text editing. Any text you place in here will be lost. If you need to comment on your tab, please use the "Tab Notes" section located below.