sunniva

(/) Slide Up  (\) Slide Down  (h) Hammer On  (p) Pull Off  (b) Bend (r) Release (v) Vibrato


E|---------------------------------------------------------------------------------------
B|-------8-------8--7h8---------8-------8--7h8-------8--7h8----5--7--8-------------------
G|--5\7-----5\7------------5\7-----5\7----------5\7---------------------7--5--4--5-------
D|---------------------------------------------------------------------------------------
A|---------------------------------------------------------------------------------------
E|---------------------------------------------------------------------------------------



E|------------------------------------------------------------------------------------------
B|--5--7--8----------------5--7--8----------------------------------------------------------
G|-----------7--5--4--7-------------7--5--4-------7--7--7--5--5--5--4--4--4-----------------
D|-------------------------------------------5-------------------------------5--5--5--5--5--
A|------------------------------------------------------------------------------------------
E|------------------------------------------------------------------------------------------



E|--------------------------------------------------
B|--------------------------------------------------
G|--5--5--5--4--4--4--------------2--2--2--2--2--0--
D|--------------------5--5--5--5--------------------
A|--------------------------------------------------
E|--------------------------------------------------
http://www.guitartabcreator.com
Guitar Tab Creator is intended to store guitar tab created through the tool. It currently does not support in-line text editing. Any text you place in here will be lost. If you need to comment on your tab, please use the "Tab Notes" section located below.