Somebody That I Used to Know - Long Hair

(/) Slide Up  (\) Slide Down  (h) Hammer On  (p) Pull Off  (b) Bend (r) Release (v) Vibrato

E|--------3--3--5--6--8--5----------------------------
B|--1--1--------------------8----6--6--5--5--3--3--1--
G|----------------------------------------------------
D|----------------------------------------------------
A|----------------------------------------------------
E|----------------------------------------------------



E|--------3--3--5--6--8--5--3-------------------3/5--
B|--1--1-------------------------3--3--5--3--3-------
G|---------------------------------------------------
D|---------------------------------------------------
A|---------------------------------------------------
E|---------------------------------------------------



E|----------------------------------------------
B|--3--3------3--3------3--3------3--3----3--3--
G|----------------------------------------------
D|----------------------------------------------
A|----------------------------------------------
E|----------------------------------------------



E|-----5----8--5--3------------------5----8--5--------
B|--3----------------3--3------5--3-------------3--3--
G|----------------------------------------------------
D|----------------------------------------------------
A|----------------------------------------------------
E|----------------------------------------------------



E|----------------------------
B|--3--3------3--3------3--3--
G|----------------------------
D|----------------------------
A|----------------------------
E|----------------------------



E|--5--3--3--5-------5--3--3--5-----------5--3--3--5--------5--3--3--5--------
B|--------------6----------------6--5--3--------------6--5--------------6--5--
G|----------------------------------------------------------------------------
D|----------------------------------------------------------------------------
A|----------------------------------------------------------------------------
E|----------------------------------------------------------------------------



E|--------3--3--5--6--8--5----------------------------
B|--1--1--------------------8----6--6--5--5--3--3--1--
G|----------------------------------------------------
D|----------------------------------------------------
A|----------------------------------------------------
E|----------------------------------------------------



E|--------3--3--5--6--8--5--3----------0--------3/5--
B|--1--1-------------------------3--3-----3--3-------
G|---------------------------------------------------
D|---------------------------------------------------
A|---------------------------------------------------
E|---------------------------------------------------



E|-------------------------------------------------------------------------------------
B|--6--6--5--5--5--5----6--6--5--5--5--5----6--6--5--5--5--5----6--6--5--5--5--5-------
G|-------------------------------------------------------------------------------------
D|-------------------------------------------------------------------------------------
A|-------------------------------------------------------------------------------------
E|-------------------------------------------------------------------------------------



E|--6--6--5--5--5--5----6--6--5--5--5--5--
B|----------------------------------------
G|----------------------------------------
D|----------------------------------------
A|----------------------------------------
E|----------------------------------------



E|--6--6--5--5--5--5----6--6--5--5--5--5------6--6--5--5--5--5----6--6--5--5-----
B|-------------------------------------------------------------------------------
G|-------------------------------------------------------------------------------
D|-------------------------------------------------------------------------------
A|-------------------------------------------------------------------------------
E|-------------------------------------------------------------------------------



E|--5--3----8--5--3-------5--3----8--5--3--
B|---------------------5-------------------
G|-----------------------------------------
D|-----------------------------------------
A|-----------------------------------------
E|-----------------------------------------



E|--5--3--3--5-------5--3--3--5-----------5--3--3--5-----5--3--3--5--------
B|--------------6----------------6--5--3--------------6--------------6--5--
G|-------------------------------------------------------------------------
D|-------------------------------------------------------------------------
A|-------------------------------------------------------------------------
E|-------------------------------------------------------------------------



E|--------3--3--5--6--8--5--3----1--1--0--0-----------
B|--1--1-------------------------------------3--3--1--
G|----------------------------------------------------
D|----------------------------------------------------
A|----------------------------------------------------
E|----------------------------------------------------



E|--------3--3--5--6--8--5--3----1--1--0--0-----------
B|--1--1-------------------------------------3--3--1--
G|----------------------------------------------------
D|----------------------------------------------------
A|----------------------------------------------------
E|----------------------------------------------------



E|--------3--3--5--6--8--5--3----1--1--0--0-----------
B|--1--1-------------------------------------3--3--1--
G|----------------------------------------------------
D|----------------------------------------------------
A|----------------------------------------------------
E|----------------------------------------------------



E|--------3--3--5--6--8--5--3-------0-----3/5--
B|--1--1-------------------------3-----3-------
G|---------------------------------------------
D|---------------------------------------------
A|---------------------------------------------
E|---------------------------------------------
http://www.guitartabcreator.com
Guitar Tab Creator is intended to store guitar tab created through the tool. It currently does not support in-line text editing. Any text you place in here will be lost. If you need to comment on your tab, please use the "Tab Notes" section located below.