Somebody That I Used to Know - Girl

(/) Slide Up  (\) Slide Down  (h) Hammer On  (p) Pull Off  (b) Bend (r) Release (v) Vibrato


E|------------------------
B|------------------------
G|--14----12----14----12--
D|--12----10----12----10--
A|------------------------
E|------------------------



E|------------------------------------------------
B|------------------------------------------------
G|--14----12----14----12----14----12----14----12--
D|--12----10----12----10----12----10----12----10--
A|------------------------------------------------
E|------------------------------------------------



E|------------------------------------------------
B|------------------------------------------------
G|--14----12----14----12----14----12----14----12--
D|--12----10----12----10----12----10----12----10--
A|------------------------------------------------
E|------------------------------------------------



E|----------------------------------
B|----------------------------------
G|--14--14--12--12--10--10--12--12--
D|--12--12--10--10--8---8---10--10--
A|----------------------------------
E|----------------------------------
http://www.guitartabcreator.com
Guitar Tab Creator is intended to store guitar tab created through the tool. It currently does not support in-line text editing. Any text you place in here will be lost. If you need to comment on your tab, please use the "Tab Notes" section located below.