push

(/) Slide Up  (\) Slide Down  (h) Hammer On  (p) Pull Off  (b) Bend (r) Release (v) Vibrato


E|------------------------|--------------------------|---
B|------------------------|--------------------------|---
G|------------------------|--------------------------|---
D|------------------------|--------------------------|---
A|------------------------|--------------------------|---
E|-0-0---0-0---0-0-0--0-0-|-3-3--3-3--2-2-2--1-1-6\5-|---



E|--------------------------------------|--------------------------------------|-----
B|--------------------------------------|--------------------------------------|-----
G|--------------------------------------|--------------------------------------|-----
D|--------------------------------------|--------------------------------------|-----
A|--------------------------------------|--------------------------------------|-----
E|--0h1p0--0--0--0h1p0--0--0--0h1p0--0--|--0h1p0--0--0--0h1p0--0--0--0h1p0--0--|-----



E|--------------------------------------|-----------------------------------|--
B|--------------------------------------|-----------------------------------|--
G|--------------------------------------|-----------------------------------|--
D|--------------------------------------|-----------------------------------|--
A|--------------------------------------|-----------------------------------|--
E|--0h1p0--0--0--0h1p0--0--0--0h1p0--0--|--0h1p0--0--0--0h1p0--0--0h1p0--3--|--



E|-----------------------|----------------------|------------------------------------|--
B|-----------------------|----------------------|------------------------------------|--
G|-----------------------|----------------------|------------------------------------|--
D|-----------------------|----------------------|------------------------------------|--
A|-----8--8-----7--7-----|-----------------3h5--|------------------------------------|--
E|--0--------0--------0--|--0--3--0--3--5-------|--3--3----3--3--3--3----3--3--2--2--|--



E|--------------------------------------|-------------------------------------------|--
B|--------------------------------------|-------------------------------------------|--
G|--------------------------------------|-------------------------------------------|--
D|--------------------------------------|-------------------------------------------|--
A|--------------3--1--0--0--6--6--6--6--|-----8--8-----7--7--------------------3\5--|--
E|--3--1--0--0--------------------------|--0--------0--------0--0--3--0--3--5-------|--



E|------------------------------------|-----------------------------|--
B|------------------------------------|-----------------------------|--
G|------------------------------------|-----------------------------|--
D|------------------------------------|-----------------------------|--
A|------------------------------------|--------------3--------------|--
E|--3--3----3--3--3--3----3--3--2--2--|--1--0--1--0-----0--0--1--3--|--



E|----------------------------------|--------------------------|-----------------------
B|----------------------------------|--------------------------|-----------------------
G|----------------------------------|--------------------------|-----------------------
D|----------------------------------|--------------------------|-----------------------
A|----------------------------------|--------------------------|-----------------------
E|--0--0----0--0--0--0--0--0--0--0--|--0--0--0--0--0--0--0--0--|--0--0--0--0--0--0--0--



E|-----------|----------------------------------|--------------------------|--
B|-----------|----------------------------------|--------------------------|--
G|-----------|----------------------------------|--------------------------|--
D|-----------|----------------------------------|--------------------------|--
A|-----------|----------------------------------|--------------------------|--
E|--6--6--5--|--0--0----0--0--0--0--0--0--0--0--|--0--0--0--0--0--0--0--0--|--



E|--------------------------|--
B|--------------------------|--
G|--------------------------|--
D|--------------------------|--
A|--------------------------|--
E|--3--3--3--2--2--2--1--1--|--



E|----------------------------------------------------------------------|--
B|----------------------------------------------------------------------|--
G|----------------------------------------------------------------------|--
D|----------------------------------------------------------------------|--
A|----------------------------------------------------------------------|--
E|--5----5--5--5--5--6--6--6--6--3--3--3--3--3--2--2--2--2--1--1--1--3--|--



E|---------------------------------------------|----------------------------
B|---------------------------------------------|----------------------------
G|---------------------------------------------|----------------------------
D|---------------------------------------------|----------------------------
A|-----8--8-----7--7----------------------3\5--|-----8--8-----7--7----------
E|--0--------0--------0----0--3--0--3--5-------|--0--------0--------0----0--



E|--------------------------------------|--
B|--------------------------------------|--
G|--------------------------------------|--
D|--------------------------------------|--
A|--------------3--1--0--0--6--6--6--6--|--
E|--3--1--0--0--------------------------|--



E|------------------------------|--------------------|--------------------------|--
B|------------------------------|--------------------|--------------------------|--
G|------------------------------|--------------------|--------------------------|--
D|-----7-----------7h8p7--------|--------------------|--------2-----3-----2-----|--
A|--------8--7------------8-----|--------------------|--------------------------|--
E|--0-----------0------------0--|--0----0----0----0--|--3--3-----3-----3-----3--|--



E|------------------------------|--
B|------------------------------|--
G|------------------------------|--
D|------------------------------|--
A|------------------------------|--
E|--3--2----0--2--1--0----6--5--|--



E|-----------------------------------------------------------------------------
B|-----------------------------------------------------------------------------
G|-----------------------------------------------------------------------------
D|-----------------------------------------------------------------------------
A|----------5-----------3--5---------------------------------------------------
E|--0--0-------0--0--0--------0--0--0--0--0--3--3----3--3--3--3----3--3--2--2--



E|-----------------|----------------------------------------------
B|-----------------|----------------------------------------------
G|-----------------|----------------------------------------------
D|-----------------|----------------------------------------------
A|--------------3--|-----8--8-----7--7----------------------3--5--
E|--2--2--1--1-----|--0--------0--------0----0--3--0--3--5--------



E|-----------------------------------------------------
B|-----------------------------------------------------
G|-----------------------------------------------------
D|-----------------------------------------------------
A|-----------------------------------------------------
E|--3--3----3--3--3--3----3--3--2--2----2--2--1--1/10--



E|--------------------------------------------------------------------------------
B|--------------------------------------------------------------------------------
G|--------------------------------------------------------------------------------
D|--------------------------------------------------------------------------------
A|--------------------------8--8--8--8-----------7--7--7--7-----------5--5--5--5--
E|--0--0--0--0--0--0--0--0--------------0--0--0--------------0--0--0--------------



E|-----------------------------------------------------------------------------------
B|-----------------------------------------------------------------------------------
G|-----------------------------------------------------------------------------------
D|-----------------------------------------------------------------------------------
A|-----------------------------------------------------------------------------------
E|--3--3--3--3--3--3--3--3--3--3--3--3--2--2--2--2--2--2--2--2--1--1--1--1--1--1--1--
http://www.guitartabcreator.com
Guitar Tab Creator is intended to store guitar tab created through the tool. It currently does not support in-line text editing. Any text you place in here will be lost. If you need to comment on your tab, please use the "Tab Notes" section located below.