Fear the Fear

(/) Slide Up  (\) Slide Down  (h) Hammer On  (p) Pull Off  (b) Bend (r) Release (v) Vibrato
E|---------------------------------------------------------------------------------------------------
B|---------------------------------------------------------------------------------------------------
G|---------------------------------------------------------------------------------------------------
D|---------------------------------------------------------------------------------------------------
A|---------------------------------------------------------------------------------------------------
E|--0----0----0--0----0----0----0----0--0----0----0----0----0--0----0----0----0----3v--/10----10-----



E|-----------------------------------------------------------------|---------------|--
B|-----------------------------------------------------------------|---------------|--
G|-----------------------------------------------------------------|---------------|--
D|-----------------------------------------------------------------|---------------|--
A|-----------------------------------------------------------------|---------------|--
E|--10--10----10----10----10----10--10----10--8----8----8--8----8--|--8----7----8--|--



E|------------------------------------------------------------------------------------------------
B|------------------------------------------------------------------------------------------------
G|------------------------------------------------------------------------------------------------
D|------------------------------------------------------------------------------------------------
A|------------------------------------------------------------------------------------------------
E|--0----0----0--0----0----0----0----0--0----0----0----0----0--0----0----0----0----3v--/10----10--



E|-----------------------------------------------------------------|---------------|--
B|-----------------------------------------------------------------|---------------|--
G|-----------------------------------------------------------------|---------------|--
D|-----------------------------------------------------------------|---------------|--
A|-----------------------------------------------------------------|---------------|--
E|--10--10----10----10----10----10--10----10--8----8----8--8----8--|--8----7----3--|--



E|--------------|----------------|-----------------|------------|---------------------------
B|--------------|----------------|-----------------|------------|---------------------------
G|--------------|----------------|-----------------|------------|---------------------------
D|--------------|----------------|-----------------|------------|---------------------------
A|--------------|----------------|-----------------|------------|---------------------------
E|--------------|----------------|--2------0----v--|------------|--0h1--1--1--0h1--3--3--2--



E|-------------------------------|-----------------------------------|-
B|-------------------------------|-----------------------------------|-
G|-------------------------------|-----------------------------------|-
D|-------------------------------|-----------------------------------|-
A|-------------------------------|-----------------------------------|-
E|-3-2-0-0-0-0--0-0-0-0--0-0-0-0-|-3-2-0-0-0-0--0-0-0-0--0-0-0-0--2v-|-



E|-------------------------------|--------------------------------|-
B|-------------------------------|--------------------------------|-
G|-------------------------------|--------------------------------|-
D|-------------------------------|--------------------------------|-
A|-------------------------------|--------------------------------|-
E|-3-2-0-0-0-0--0-0-0-0--0-0-0-0-|-3-2-0-0-0-0--0-0-0-0--3--3--2v-|-



E|---------------------------------------------------------------------------|-
B|---------------------------------------------------------------------------|-
G|---------------------------------------------------------------------------|-
D|---------------------------------------------------------------------------|-
A|---------------------------------------------------------------------------|-
E|-3-2-0-0-0-0-0-0-0-0-0-0-2-0-0-0-0-0-0-0-0-0-3-2-0-0-0-0-0-0-0-0-0-0-0-0-2-|-



E|------------------------------------------------------------------------|-
B|------------------------------------------------------------------------|-
G|------------------------------------------------------------------------|-
D|------------------------------------------------------------------------|-
A|------------------------------------------------------------------------|-
E|-3-2-0-0-0-0-0-0-0-0-0-2-0-0-0-0-0-0-0-0-0-0-3-2-0-0-0-0-0-0-0-0-0-2--2-|-



E|------------------------------------------------------------------------
B|------------------------------------------------------------------------
G|------------------------------------------------------------------------
D|------------------------------------------------------------------------
A|------------------------------------------------------------------------
E|-3-2-0-0-0-0-0-0-0-0-2-0-0-0-0-0-0-0-0-0-0-3-2-0-0-0-0-0-0-2-0-0-0-0-2v-



E|---------------------------------------------------------------------------|-
B|---------------------------------------------------------------------------|-
G|---------------------------------------------------------------------------|-
D|---------------------------------------------------------------------------|-
A|---------------------------------------------------------------------------|-
E|-3-2-0-0-0-0-0-0-0-0-2-0-0-0-0-0-0-0-0-0-0-3-2-0-0-0-0-0-0-2-0-0-0-3--3--2-|-



E|--------------------------------|-------------------------------|-
B|--------------------------------|-------------------------------|-
G|--------------------------------|-------------------------------|-
D|--------------------------------|-------------------------------|-
A|--------------------------------|-----------------------------3-|-
E|-0h2h3-0h3h5-0h5h6-0h3h5-0h2h3v-|-0h2h3-0h3h5-0h5h6-0h3h5-0h2---|-



E|--------------------------------|----------------------------|-
B|--------------------------------|----------------------------|-
G|--------------------------------|----------------------------|-
D|--------------------------------|----------------------------|-
A|--------------------------------|----------------------------|-
E|-0h2h3-0h3h5-0h5h6-0h3h5-0h2h3v-|-0h2h3-0h3h5--0-0--3--3--2v-|-



E|--------------------------------|-------------------------------|-
B|--------------------------------|-------------------------------|-
G|--------------------------------|-------------------------------|-
D|--------------------------------|-------------------------------|-
A|--------------------------------|-----------------------------3-|-
E|-0-2-3-0-3-5-0-5-6-0-3-5-0-2-3v-|-0-2-3-0-3-5-0-5-6-0-3-5-0-2---|-



E|--------------------------------|-----------------------------|-
B|--------------------------------|-----------------------------|-
G|--------------------------------|-----------------------------|-
D|--------------------------------|-----------------------------|-
A|--------------------------------|-----------------------------|-
E|-0-2-3-0-3-5-0-5-6-0-3-5-0-2-3v-|-0-2-3-0-3-5--0--0--3--3--2v-|-



E|--
B|--
G|--
D|--
A|--
E|--
http://www.guitartabcreator.com
Guitar Tab Creator is intended to store guitar tab created through the tool. It currently does not support in-line text editing. Any text you place in here will be lost. If you need to comment on your tab, please use the "Tab Notes" section located below.