Falling Down - H8TANK

(/) Slide Up  (\) Slide Down  (h) Hammer On  (p) Pull Off  (b) Bend (r) Release (v) Vibrato

E|---------|-----------------|-----------------|------------------|-------------------|--
B|---------|-----------------|-----------------|------------------|-------------------|--
G|---------|-----------------|-----------------|------------------|-------------------|--
D|---------|-----------------|-----------------|------------------|-------------------|--
A|---------|-----------------|-----------------|-------------5\1--|----------1--------|--
E|--0------|--0--0----0--0v--|--0--0----0--0v--|--0--0----0-------|-------------2--1--|--



E|--------------------------------------------|--------------------------------------------|--
B|--------------------------------------------|--------------------------------------------|--
G|--------------------------------------------|--------------------------------------------|--
D|--------------------------------------------|--------------------------------------------|--
A|--------------------------------------------|--------------------------------------------|--
E|--0--0----0--0--0----0--0--0----0--0--0--0--|--0--0----0--0--0----0--0--0----0--0--0--0--|--



E|--------------------------------------------|------------------------------------------|--
B|--------------------------------------------|------------------------------------------|--
G|--------------------------------------------|------------------------------------------|--
D|--------------------------------------------|------------------------------------------|--
A|--------------------------------------------|------------------------------------------|--
E|--0--0----0--0--0----0--0--0----0--0--0--0--|--0h1--1--1----1--0h1--1--1----1--0h1--1--|--



E|--------------------------------------------|--------------------------------------------|--
B|--------------------------------------------|--------------------------------------------|--
G|--------------------------------------------|--------------------------------------------|--
D|--------------------------------------------|--------------------------------------------|--
A|--------------------------------------------|--------------------------------------------|--
E|--0--0----0--0--0----0--0--0----0--0--0--0--|--0--0----0--0--0----0--0--0----0--0--0--0--|--



E|--------------------------------------------|------------------------------------------|--
B|--------------------------------------------|------------------------------------------|--
G|--------------------------------------------|------------------------------------------|--
D|--------------------------------------------|------------------------------------------|--
A|--------------------------------------------|------------------------------------------|--
E|--0--0----0--0--0----0--0--0----0--0--0--0--|--0h1--1--1----1--0h1--1--1----1--0h1--1--|--



E|------------------------------------------------|--
B|------------------------------------------------|--
G|------------------------------------------------|--
D|------------------------------------------------|--
A|--5--------4--------3--------2--------1---------|--
E|-----6--5-----5--4-----4--3-----3--2-----2--1v--|--



E|-------------------------------------------------------------------------------------------|--
B|-------------------------------------------------------------------------------------------|--
G|-------------------------------------------------------------------------------------------|--
D|-------------------------------------------------------------------------------------------|--
A|-------------------------------------------------------------------------------------------|--
E|--0--0--0----0--0--0----0--0--0----0--0--0----0--0--0----0--0--0----0--0--0----0--0--0--1--|--



E|--------------------------------------------------------------------------------------|--
B|--------------------------------------------------------------------------------------|--
G|--------------------------------------------------------------------------------------|--
D|--------------------------------------------------------------------------------------|--
A|--------------------------------------------------------------------------------------|--
E|--0--0--0----0--0--0----0--0--0----0--0--0----0h1--1--1----1--0h1--1--1----1--0h1--1--|--



E|----------------------------------------------------------------------------------------------|--
B|----------------------------------------------------------------------------------------------|--
G|----------------------------------------------------------------------------------------------|--
D|----------------------------------------------------------------------------------------------|--
A|----------------------------------------------------------------------------------------------|--
E|--0--0--0----0--0--0----0--0--0----0--0--0----0--0--0----0--0--0----0--0--0--1----0--0--0--3--|--



E|--------------------------------------------------------------------------------------|--
B|--------------------------------------------------------------------------------------|--
G|--------------------------------------------------------------------------------------|--
D|--------------------------------------------------------------------------------------|--
A|--------------------------------------------------------------------------------------|--
E|--0--0--0----0--0--0----0--0--0----0--0--0----0h1--1--1----1--0h1--1--1----1--0h1--1--|--



E|------------------------------------------------|--
B|------------------------------------------------|--
G|------------------------------------------------|--
D|------------------------------------------------|--
A|--5--------4--------3--------2--------1---------|--
E|-----6--5-----5--4-----4--3-----3--2-----2--1v--|--



E|-------------------------------------------------------------------------------|--
B|-------------------------------------------------------------------------------|--
G|-------------------------------------------------------------------------------|--
D|-------------------------------------------------------------------------------|--
A|--3-------------3-------------3h5----------------------------------------------|--
E|---------0-------------0-------------0--0--0----0--0--0----0--0--0----0--0--0--|--



E|---------------------------------------------------------------------------------------|--
B|---------------------------------------------------------------------------------------|--
G|---------------------------------------------------------------------------------------|--
D|---------------------------------------------------------------------------------------|--
A|--3---------------3-------------3\1----------------------------------------------------|--
E|---------0---------------0-------------1--1--1--3--3--3--1--1--1--3--3--3--1--1--3--3--|--



E|-----------------------------------|--------------------------------------------|--
B|-----------------------------------|--------------------------------------------|--
G|-----------------------------------|--------------------------------------------|--
D|-----------------------------------|--------------------------------------------|--
A|--3-------------3-------------3h5--|--------------------------------------------|--
E|---------0-------------0-----------|--0--0--0----0--0--0----0--0--0----0--0--0--|--



E|---------------------------------|--------------------------------|-----
B|---------------------------------|--------------------------------|-----
G|---------------------------------|--------------------------------|-----
D|---------------------------------|--------------------------------|-----
A|--3-------------3-------------3--|--5----4----3----2----1---------|-----
E|---------0-------------0---------|-------------------------2--1v--|-----



E|--------------------------------------------------------
B|--------------------------------------------------------
G|--------------------------------------------------------
D|--------------------------------------------------------
A|--------------------------------------------------------
E|--0--0--0--12--0--0--0--0--0--0--0--12--0--0--12h13-----



E|---------------------------------------------------------
B|---------------------------------------------------------
G|---------------------------------------------------------
D|---------------------------------------------------------
A|---------------------------------------------------------
E|--0--0--0--12--0--0--0--0--0--0--0--12--0--0--12h13--10--



E|---------------------------------------------------------
B|---------------------------------------------------------
G|---------------------------------------------------------
D|---------------------------------------------------------
A|---------------------------------------------------------
E|--0--0--0--12--0--0--0--0--0--0--0--12--0--0--12h13--12--



E|--------------------------------------------------
B|--------------------------------------------------
G|--------------------------------------------------
D|--------------------------------------------------
A|--------------------------------------------------
E|--0--0--0--12--0--13--0--15--0--13--0--12h13--12--



E|--------------------------|--------------------------|--------------------------
B|--------------------------|--------------------------|--------------------------
G|--------------------------|--------------------------|--------------------------
D|--------------------------|--------------------------|--------------------------
A|-----------------------5--|-----------------------5--|-----------------------5--
E|--0--0--0--0--0--0--0-----|--0--0--0--0--0--0--0-----|--0--0--0--0--0--0--0-----



E|------------------------------------------------------|--
B|------------------------------------------------------|--
G|------------------------------------------------------|--
D|------------------------------------------------------|--
A|------------------------------------------------------|--
E|--0--0--0--12--0--13--0--15--0--13--0--0--12--13--12--|--



E|--------------------------|--------------------------|--------------------------|--
B|--------------------------|--------------------------|--------------------------|--
G|--------------------------|--------------------------|--------------------------|--
D|--------------------------|--------------------------|--------------------------|--
A|-----------------------5--|--3--3--3--3--3--3--3--3--|--1--1--1--1--1--1--1--1--|--
E|--0--0--0--0--0--0--0-----|--------------------------|--------------------------|--



E|------------------------------------------------------|--
B|------------------------------------------------------|--
G|------------------------------------------------------|--
D|------------------------------------------------------|--
A|------------------------------------------------------|--
E|--0--0--0--12--0--13--0--15--0--13--0--0--12--13--12--|--



E|-----------------|-----------------------|-----------------------|-----
B|-----------------|-----------------------|-----------------------|-----
G|-----------------|-----------------------|-----------------------|-----
D|-----------------|-----------------------|-----------------------|-----
A|--------1--------|--5--4--3--2--1--------|--5--4--3--2--1--------|-----
E|-----------2--1--|-----------------2--1--|-----------------2--1--|-----



E|------------------------------------------------|--
B|------------------------------------------------|--
G|------------------------------------------------|--
D|------------------------------------------------|--
A|--5--------4--------3--------2--------1---------|--
E|-----6--5-----5--4-----4--3-----3--2-----2--1v--|--
http://www.guitartabcreator.com
Guitar Tab Creator is intended to store guitar tab created through the tool. It currently does not support in-line text editing. Any text you place in here will be lost. If you need to comment on your tab, please use the "Tab Notes" section located below.