Shoot to thrill

(/) Slide Up  (\) Slide Down  (h) Hammer On  (p) Pull Off  (b) Bend (r) Release (v) Vibrato
E|-----------------------------------------------------------------------------------------------
B|-----------------------------------------------------------------------------------------------
G|--2--------2--2--------2--2--------2--2--------2--2--------2--2--------2--2--2--2--2--------2--
D|--2--------2--2--------2--2--------2--2--------2--2--------2--2--------2--2--2--2--2--------2--
A|--0--3--4--0--0--3--4--0--0--3--4--0--0--3--4--0--0--3--4--0--0--3--4--0--0--0--0--0--3--4--0--
E|-----------------------------------------------------------------------------------------------



E|-----------------------------------------------------------------------------------------------
B|--------------------3-----3-----3-----3--------------3-----3-----3-----3--------------3-----3--
G|--2--2--2--2--------0-----2-----0-----2--------------0-----2-----0-----2--------------0-----2--
D|--2--2--2--2-----------------------------------------------------------------------------------
A|--0--0--0--0--3--4-----0-----0-----0-----0--5--4--0-----0-----0-----0-----0--5--4--0-----0-----
E|-----------------------------------------------------------------------------------------------



E|-----------------------------------------------------------0--3--0--0--3--0--3--0--3--------------
B|-----3-----3--------------3-----3-----3-----3--------------1--3--1--1--3--1--2--2--2-----8--8-----
G|-----0-----2--------------0-----2-----0-----2-----------2--0--0--0--0--0--0--3--2--3-----7--7-----
D|--------------------------------------------------------2--2--0--2--2--0--2--0--2--0-----6--6-----
A|--0-----0-----0--5--4--0-----0-----0-----0-----0--5--4--0--3--2--3--3--2--3-----0--------7--7-----
E|--------------------------------------------------------------3--------3--------------0--------0--



E|--------------------------------------0--0--0--0--3--
B|--8--8-----8--8-----8--8-----8--8-----1--1--1--1--3--
G|--7--7-----7--7-----7--7-----7--7-----1--1--1--1--0--
D|--6--6-----6--6-----6--6-----6--6-----1--1--1--1--0--
A|--7--7-----7--7-----7--7-----7--7-----0--0--0--0-----
E|--------0--------0--------0--------0--------------3--
http://www.guitartabcreator.com
Guitar Tab Creator is intended to store guitar tab created through the tool. It currently does not support in-line text editing. Any text you place in here will be lost. If you need to comment on your tab, please use the "Tab Notes" section located below.