I'll Be Your Boogeyman (intro)

(/) Slide Up  (\) Slide Down  (h) Hammer On  (p) Pull Off  (b) Bend (r) Release (v) Vibrato

E|-------------10-------------10-------------10-------------10--
B|-----12-------------12-------------12-------------12----------
G|---------11-------------11-------------11-------------11------
D|--9--------------9--------------9--------------9--------------
A|--------------------------------------------------------------
E|--------------------------------------------------------------



E|-------------10-------------10-------------10-------------10-----
B|-----12-------------12-------------12-------------12-------------
G|---------11-------------11-------------11-------------11---------
D|--9--------------9--------------9--------------9-----------------
A|-----------------------------------------------------------------
E|-----------------------------------------------------------------



E|-------14-------13-------14-------13-------12-------10-------12-------12-
B|----15-------15-------15-------15-------14-------12-------14-------14----
G|-16-------16-------16-------16-------14-------12-------14-------15-------
D|-------------------------------------------------------------------------
A|-------------------------------------------------------------------------
E|-------------------------------------------------------------------------



E|-------14-------14----------------13----13----------
B|----15-------15----15----15----15----------15----15-
G|-16-------16----------16----16-------16-------16----
D|----------------------------------------------------
A|----------------------------------------------------
E|----------------------------------------------------



E|-------14-------14----------------13----13-------
B|----15-------15----15----15----15----------15----
G|-16-------16----------16----16-------16-------16-
D|-------------------------------------------------
A|-------------------------------------------------
E|-------------------------------------------------



E|----------12----------12----------------------10------10--------------
B|------14----------14------14------14------12--------------12------12--
G|--14----------14--------------14------12----------12----------12------
D|----------------------------------------------------------------------
A|----------------------------------------------------------------------
E|----------------------------------------------------------------------



E|----------12----------12----------------------12------12----------
B|------14----------14------14------14------14--------------14------
G|--14----------14--------------14------15----------15----------15--
D|------------------------------------------------------------------
A|------------------------------------------------------------------
E|------------------------------------------------------------------
http://www.guitartabcreator.com
Guitar Tab Creator is intended to store guitar tab created through the tool. It currently does not support in-line text editing. Any text you place in here will be lost. If you need to comment on your tab, please use the "Tab Notes" section located below.