I'll Be Your Boogeyman (chorus)

(/) Slide Up  (\) Slide Down  (h) Hammer On  (p) Pull Off  (b) Bend (r) Release (v) Vibrato


E|------------------------------------------------------------------------------------------
B|------------------------------------------------------------------------------------------
G|------------------------------------------------------------------------------------------
D|------------------------------------------------------------------------------------------
A|--9--9--9--9--8--9--9--9--9--9--7---------9--9--9--9--8--9--9-----------------------------
E|--7--7--7--7--6--7--7--7--7--------10--9--7--7--7--7--6--7--7--0--0--0--1--1--1--2--2--2--



E|------------------------------------------------------------------------------------------
B|------------------------------------------------------------------------------------------
G|------------------------------------------------------------------------------------------
D|------------------------------------------------------------------------------------------
A|--9--9--9--9--8--9--9--9--9--9--7---------9--9--9--9--8--9--9-----------------------------
E|--7--7--7--7--6--7--7--7--7--------10--9--7--7--7--7--6--7--7--0--0--0--1--1--1--2--2--2--
http://www.guitartabcreator.com
Guitar Tab Creator is intended to store guitar tab created through the tool. It currently does not support in-line text editing. Any text you place in here will be lost. If you need to comment on your tab, please use the "Tab Notes" section located below.