I'll Be Your Boogeyman (Bridge 2)

(/) Slide Up  (\) Slide Down  (h) Hammer On  (p) Pull Off  (b) Bend (r) Release (v) Vibrato


E|--------------------------------------------------------------------------
B|--------------------------------------------------------------------------
G|--------------------------------------------------------------------------
D|--4--4--4--4--4--4--4--4--4--4--4--4--4--4--4--4--4--4--4--4--4--4--4--4--
A|--2--2--2--2--2--2--2--2--2--2--2--2--2--2--2--2--2--2--2--2--2--2--2--2--
E|--------------------------------------------------------------------------



E|--------------------------------------------------------------------------
B|--------------------------------------------------------------------------
G|--------------------------------------------------------------------------
D|-----------2--4--2-----------------------------2--4--2--------------------
A|--2--4--5-----------5--4--2--1--------2--4--5-----------5--4--2--1--------
E|--------------------------------3--2--------------------------------3--2--



E|----------------------------------------------------------------------------
B|----------------------------------------------------------------------------
G|----------------------------------------------------------------------------
D|-----------5--7--5------------------------------7--9--7---------------------
A|--5--7--8-----------8--7--5--4--------7--9--10-----------10--9--7--6--------
E|--------------------------------6--5----------------------------------8--7--



E|--------------------------------------------------------------------------
B|--------------------------------------------------------------------------
G|--------------------------------------------------------------------------
D|-----------2--4--2-----------------------------2--4--2--------------------
A|--2--4--5-----------5--4--2--1--------2--4--5-----------5--4--2--1--------
E|--------------------------------3--2--------------------------------3--2--



E|----------------------------------------------------------------------------
B|----------------------------------------------------------------------------
G|----------------------------------------------------------------------------
D|-----------5--7--5------------------------------7--9--7---------------------
A|--5--7--8-----------8--7--5--4--------7--9--10-----------10--9--7--6--------
E|--------------------------------6--5----------------------------------8--7--
http://www.guitartabcreator.com
Guitar Tab Creator is intended to store guitar tab created through the tool. It currently does not support in-line text editing. Any text you place in here will be lost. If you need to comment on your tab, please use the "Tab Notes" section located below.