I'll Be Your Boogeyman (Bridge 1)

(/) Slide Up  (\) Slide Down  (h) Hammer On  (p) Pull Off  (b) Bend (r) Release (v) Vibrato


E|--------------------------------------------------------------------------
B|--------------------------------------------------------------------------
G|--------------------------------------------------------------------------
D|--------4--------4--------4--------5--------4--------4--------4--------5--
A|-----5--------5--------5--------5--------5--------5--------5--------5-----
E|--7--------7--------7--------3--------7--------7--------7--------3--------



E|--------------------------------------------------------------------------
B|--------------------------------------------------------------------------
G|--------------------------------------------------------------------------
D|--------4--------4--------4--------5--------4--------4--------4--------5--
A|-----5--------5--------5--------5--------5--------5--------5--------5-----
E|--7--------7--------7--------3--------7--------7--------7--------3--------



E|--------------------------------------------------------------------------
B|--------------------------------------------------------------------------
G|--------4--------4--------4--------5--------4--------4--------4--------5--
D|-----5--------5--------5--------5--------5--------5--------5--------5-----
A|--7--------7--------7--------3--------7--------7--------7--------3--------
E|--------------------------------------------------------------------------



E|-----------------------------------------------------------------------
B|-----------------------------------------------------------------------
G|--------4--------4--------4--------5-----4--------4--------4--------5--
D|-----5--------5--------5--------5--------------5--------5--------5-----
A|--7--------7--------7--------3--------7-----7--------7--------3--------
E|-----------------------------------------------------------------------
http://www.guitartabcreator.com
Guitar Tab Creator is intended to store guitar tab created through the tool. It currently does not support in-line text editing. Any text you place in here will be lost. If you need to comment on your tab, please use the "Tab Notes" section located below.