I'll Be Your Boogeyman (breakdown/Outro)

(/) Slide Up  (\) Slide Down  (h) Hammer On  (p) Pull Off  (b) Bend (r) Release (v) Vibrato

E|--------------------------------------------------
B|--------------------------------------------------
G|--------------------------------------------------
D|--4--4--4--4--3--3--3--3--4--4--4--4--3--3--3--3--
A|--5--5--5--5--4--4--4--4--5--5--5--5--4--4--4--4--
E|--7--7--7--7--6--6--6--6--7--7--7--7--6--6--6--6--



E|-----------------------------------------
B|-----------------------------------------
G|-----------------------------------------
D|--2--2--2--2--0--0--0--0--2--2--2--2--3--
A|--3--3--3--3--1--1--1--1--3--3--3--3--4--
E|--5--5--5--5--3--3--3--3--5--5--5--5--6--



E|--------------------------------------------------------------------
B|--------------------------------------------------------------------
G|--------------------------------0-----------------------------------
D|-----------4--------4--------------------4-----------4-----------0--
A|--------5--------------5-----1--------------5-----------5-----1-----
E|--7--7--------7--7--------3--------7--7--------7--7--------3--------



E|-----------------------------------------------------------------------------------------
B|-----------------------------------------------------------------------------------------
G|--------------------------------------0--------------------------------------------------
D|--------4--5--5-----------4--------------------4-----------4-----------3-----------------
A|-----------------5-----------5-----1--------------5-----------5-----4--------9--9--9--9--
E|--7--7--------------7--7--------3--------7--7--------7--7--------6--------6--7--7--7--7--
http://www.guitartabcreator.com
Guitar Tab Creator is intended to store guitar tab created through the tool. It currently does not support in-line text editing. Any text you place in here will be lost. If you need to comment on your tab, please use the "Tab Notes" section located below.