1st Comp

(/) Slide Up  (\) Slide Down  (h) Hammer On  (p) Pull Off  (b) Bend (r) Release (v) Vibrato

E|---------------------------------------------------------------------------------------------
B|---------------------------------------------------------------------------------------------
G|---------------------------------------------------------------------------------------------
D|--9--9--11--11--7--9--11--11--11--11--11--11--11--11-----------------------------------------
A|--9--9--11--11--7--9--11--11--11--11--11--11--11--11--------------9--7-----------------------
E|--7--7--9---9---5--7--9---9---0---9---9---9---0---9---9--9--7--9--------7--9--9--9-----9-----



E|--------------------------7--7--7--9---9---9---------------------------------
B|--------------------------7--7--7--9---9---9---------------------------------
G|--------------------------8--8--8--10--10--10-----------------11--11--9------
D|--------------------------7--7--7--9---9---9---11--11--9--11-------------11--
A|-----------9--7-----------9--9--9--11--11--11--------------------------------
E|--9--7--9--------7--9--9--7--7--7--9---9---9---------------------------------
Guitar Tab Creator is intended to store guitar tab created through the tool. It currently does not support in-line text editing. Any text you place in here will be lost. If you need to comment on your tab, please use the "Tab Notes" section located below.