I Surrender- Electric Guitar

(/) Slide Up  (\) Slide Down  (h) Hammer On  (p) Pull Off  (b) Bend (r) Release (v) Vibrato
E|--------------------------------
B|--------------------------------
G|--------------------------------
D|--9--9----4--4----6--6----2--2--
A|--9--9----4--4----6--6----2--2--
E|--9--9----4--4----6--6----2--2--



E|----------------------------------------
B|--------4h5--4---------------4h5--4-----
G|--4--6----------4------4--6----------4--
D|----------------------------------------
A|----------------------------------------
E|----------------------------------------



E|----------------------------------
B|----------------------------------
G|----------------------------------
D|--9--4--2--2--2----9--4--2--2--2--
A|--9--4--2--2--2----9--4--2--2--2--
E|--9--4--2--2--2----9--4--2--2--2--



E|--------------------
B|--------------------
G|-----4-----4--3--4--
D|--4-----4-----------
A|--------------------
E|--------------------



E|--------------------
B|--------------------
G|--------6--4--3--4--
D|--4--4--------------
A|--------------------
E|--------------------



E|--------------------------
B|--------------------------
G|--------------------------
D|--6--6--2--2--4--4--1--1--
A|--6--6--2--2--4--4--1--1--
E|--6--6--2--2--4--4--1--1--
http://www.guitartabcreator.com
Guitar Tab Creator is intended to store guitar tab created through the tool. It currently does not support in-line text editing. Any text you place in here will be lost. If you need to comment on your tab, please use the "Tab Notes" section located below.