God's Not Dead- Electric Guitar

(/) Slide Up  (\) Slide Down  (h) Hammer On  (p) Pull Off  (b) Bend (r) Release (v) Vibrato

E|-------------------------------------------------------------------------------------------------|-
B|-12-12-12----------------12-12-12----------------------------------------------------------------|-
G|----------13-13-13-13-13-------------------------------------------------------------------------|-
D|----------------------------------13-13-13-13-13-13-14-14-14-14-14-14-14-13-14-14-14-14-14-14-14-|-
A|-------------------------------------------------------------------------------------------------|-
E|-------------------------------------------------------------------------------------------------|-



E|---------------------------------------------------------------------------------
B|---------------------------------------------------------------------------------
G|---------------------------------------------------------------------------------
D|--2--2--2------0--0--0------5--5--5--------7--7--7------2--2--2------10--10--10--
A|--2--2--2------0--0--0------5--5--5--------7--7--7------2--2--2------10--10--10--
E|--2--2--2------0--0--0------5--5--5--------7--7--7------2--2--2------10--10--10--
http://www.guitartabcreator.com
Guitar Tab Creator is intended to store guitar tab created through the tool. It currently does not support in-line text editing. Any text you place in here will be lost. If you need to comment on your tab, please use the "Tab Notes" section located below.