Deliver Me- Electric Guitar

(/) Slide Up  (\) Slide Down  (h) Hammer On  (p) Pull Off  (b) Bend (r) Release (v) Vibrato
E|--------------------------------------------------------------------------
B|--------------------------------------------------------------------------
G|--------------------------------------------------------------------------
D|--------------------------------------------------------------------------
A|--------------------------------------------------------------------------
E|--0h2--2--2--0h2--2--2--0--0h2--2--2--0h2--2--2--0--0h2--2--2--0--0h2--5--



E|-----------------------------------------------------------------------------
B|-----------------------------------------------------------------------------
G|-----------------------------------------------------------------------------
D|--0--2--2--2--0--0--2--2--2--0--0--2--2--2--0--2--2--2--0--0--2--2--2--2--14\
A|--0--2--2--2--0--0--2--2--2--0--0--2--2--2--0--2--2--2--0--0--2--2--2--2--14-
E|--0--2--2--2--0--0--2--2--2--0--0--2--2--2--0--2--2--2--0--0--2--2--2--2--14-



E|-----------------------------------------------------------------------------------------------
B|-----------------------------------------------------------------------------------------------
G|-----------------------------------------------------------------------------------------------
D|--0h2--2--2------0--0--0------10--10--10--10--10--10--10--10--12--5----5----5--5-7--0h2--2--2--
A|--0-2--2--2------0--0--0------10--10--10--10--10--10--10--10--12--5----5----5--5-7--0-2--2--2--
E|--0-2--2--2------0--0--0------10--10--10--10--10--10--10--10--12--5----5----5--5h7--0-2--2--2--



E|----------------------------------------------------------------
B|----------------------------------------------------------------
G|----------------------------------------------------------------
D|--2--2--2------5--5--5------0--0--0----0--0--0----0------7----7\
A|--2--2--2------5--5--5------0--0--0----0--0--0----0------7----7-
E|--2--2--2------5--5--5------0--0--0----0--0-------0------7----7-
http://www.guitartabcreator.com
Guitar Tab Creator is intended to store guitar tab created through the tool. It currently does not support in-line text editing. Any text you place in here will be lost. If you need to comment on your tab, please use the "Tab Notes" section located below.