Hairy tits

(/) Slide Up  (\) Slide Down  (h) Hammer On  (p) Pull Off  (b) Bend (r) Release (v) Vibrato


E|-----------------------------------------------------------------
B|--------------------------------------------------2--2--2--2-----
G|--------------------------------------------------2--2--2--2-----
D|----------------2--0--0--0--3h4-------------------2--2--2--2-----
A|--0--0--0--3h4------------------------------------0--0--0--0-----
E|---------------------------------0--0--0--3h4--0--------------3--



E|----------------------------------------------------
B|--------------3--3--3--3--------------2--2--2--2----
G|--------------2--4--2--4--------------2--2--2--2----
D|--2--4--2--4--0--0--0--0--------------2--2--2--2----
A|--0--0--0--0--------------2--4--2--4--0--0--0--0----
E|--------------------------0--0--0--0--------------3b



E|--5--5--5--5--5--10--10--10--10--10--12--12--12--12--5--
B|--5--5--5--5--5--10--10--10--10--10--12--15--14--12--5--
G|--6--6--6--6--6--11--11--11--11--11--13--13--13--13--6--
D|--------------------------------------------------------
A|--------------------------------------------------------
E|--------------------------------------------------------
http://www.guitartabcreator.com
Guitar Tab Creator is intended to store guitar tab created through the tool. It currently does not support in-line text editing. Any text you place in here will be lost. If you need to comment on your tab, please use the "Tab Notes" section located below.