wind up working in a gas station

(/) Slide Up  (\) Slide Down  (h) Hammer On  (p) Pull Off  (b) Bend (r) Release (v) Vibrato
E|-----------
B|-----7-----
G|-----7-----
D|-----7-----
A|-----5-----
E|-----------



E|-----------------------------
B|-----7-----4-----7-----4-----
G|-----7-----4-----7-----4-----
D|-----7-----4-----7-----4-----
A|-----5-----2-----5-----2-----
E|-----------------------------



E|-------
B|-------
G|-----4b
D|-------
A|-------
E|-------



E|-----16b17-----20-----16-----15-----16b17-----20-----16-----20-----16-----16-----16-----16-----
B|-----------------------------------------------------------------------------------------------
G|-----------------------------------------------------------------------------------------------
D|-----------------------------------------------------------------------------------------------
A|-----------------------------------------------------------------------------------------------
E|-----------------------------------------------------------------------------------------------



E|------------------------------------------------------16b17-----20-----16b17-----20-----------
B|-----20-----20-----18-----18------------------------------------------------------------------
G|---------------------------------19-----17-----17---------------------------------------------
D|----------------------------------------------------------------------------------------------
A|----------------------------------------------------------------------------------------------
E|----------------------------------------------------------------------------------------------



E|-----16-----16-----20-----16-----20-----16-----16b17-----20-----16-----20-----16-----16-----
B|--------------------------------------------------------------------------------------------
G|--------------------------------------------------------------------------------------------
D|--------------------------------------------------------------------------------------------
A|--------------------------------------------------------------------------------------------
E|--------------------------------------------------------------------------------------------



E|-----20--------------------------------------------------------------------
B|------------18-----18------------------------------------------------------
G|--------------------------19-----19-----17-----17--------------------------
D|------------------------------------------------------17-----17-----19-----
A|---------------------------------------------------------------------------
E|---------------------------------------------------------------------------



E|-----------------------------------------------------------
B|-----------------------------------------------------------
G|-----------------------------------------------------------
D|-----------------------------------------------------------
A|-----------------------------------------3-----3-----3-----
E|-----3-----3-----3-----1-----1-----1-----------------------



E|-----------------------------------------------
B|-----------------------------------------7-----
G|-----------------------------------------7-----
D|-----------------------------------------7-----
A|-----------------------------------------5-----
E|-----3-----3-----3-----1-----1-----1-----------



E|-----------------------------------------------------------------------------------
B|-----------------------------------------------------------------------------------
G|-----4-----4-----4-----6-----------------------6b8-----6b8-----6b8-----------4-----
D|-----4-----4-----4-----6-----6-----6-----4-----------------------------6-----------
A|-----2-----2-----2-----4-----6-----6-----4-----------------------------------------
E|-----------------------------4-----4-----2-----------------------------------------



E|-----------------
B|-----------------
G|-----4-----4-----
D|-----4-----4-----
A|-----2-----2-----
E|-----------------



E|--------------------
B|--------------------
G|--------------------
D|--------------------
A|--4-----------2-----
E|-----4--4--2-----2--
http://www.guitartabcreator.com
Guitar Tab Creator is intended to store guitar tab created through the tool. It currently does not support in-line text editing. Any text you place in here will be lost. If you need to comment on your tab, please use the "Tab Notes" section located below.